Song name
# A B C D E F G H I J K L M N O P Q R S T U V W X Y Z

Delirious - Our God Reigns tab

#----------------------------------PLEASE NOTE--------------------------------#
#This file is the author's own work and represents his interpretation of the#
#song. You may only use this file for private study, scholarship, or research.#

! drop D tune !

not finding a tab to this guitar part in the song, I've made a version myself.
that's my own work and interpretation of the song, I haven't seen or copied anything on 
the web or somewhere else...
it do not attempt to be perfect!


repeat this a few time

E ----------|----------|
H ----------|----------|
G ----------|----------|
D ---4--4---|---4--4---|
A --0--0--0-|--0--0--0-|
D -0--0--0--|-0--0--0--|


E ----------|----------|----------|----------|----------|----------|
H ----------|----------|----------|----------|----------|----------|
G ----------|----------|----------|----------|----------|----------|
D ---4--4---|---4--4---|---5--5---|---5--5---|---2--2---|---2--2---|
A --0--0--0-|--0--0--0-|--0--0--0-|--0--0--0-|--0--0--0-|--0--0--0-|
D -0--0--0--|-0--0--0--|-0--0--0--|-0--0--0--|-0--0--0--|-0--0--0--|

E ----------|----------|----------|----------|
H ----------|----------|----------|----------|
G ----------|----------|----------|----------|
D ---5--5---|---5--5---|---4--4---|---4--4---|
A --0--0--0-|--0--0--0-|--0--0--0-|--0--0--0-|
D -0--0--0--|-0--0--0--|-0--0--0--|-0--0--0--|


E ----------|----------|----------|----------|----------|----------|
H ----------|----------|----------|----------|----------|----------|
G ---4--4---|---4--4---|---7--7---|---7---6--|----------|----------|
D ----------|----------|----------|----------|---4--4---|---4--4---|
A --5--5--5-|--5--5--7-|--9--9--9-|--9-9-7---|--0--0--0-|--0--0--0-|
D -5--5--5--|-5--5--7--|-9--9--9--|-9---7----|-0--0--0--|-0--0--0--|

listen to the song for the rhythm...

have fun!!!

Tap to rate this tab
# A B C D E F G H I J K L M N O P Q R S T U V W X Y Z