Song name
# A B C D E F G H I J K L M N O P Q R S T U V W X Y Z

Delirious - Here I Am Send Me tab

I made it correctly the INTRO. And I have an Solo for 100%.

INTRO
Lead Guitar
E|--------------------------------|
B|11-8-8-8-8-8-8-8----------------|
G|10-7-7-7-7-7-7-7----------------|
D|--------------------------------|
A|--------------------------------|
E|--------------------------------|

Solo
E|-------------------------------------------|
B|-------------------------------------------|
G|12-12-12-12-10-12-15--12~------------------|
D|-------------------------------------------|
A|-------------------------------------------|
E|-------------------------------------------|

E|-----------------------------------------------------------------|
B|-----------------------------------------------------------------|
G|10-12-15-15-10-12---10-12-15-15-10--10-10------------------------|
D|-----------------------------------------------------------------|
A|-----------------------------------------------------------------|
E|-----------------------------------------------------------------|

E|----------------------------------13----------------------------|
B|-----13-13------------------------------------------------------|
G|12----------10-12---10-12-----10-12^---10-12-15-----------------|
D|----------------------------------------------------------------|
A|----------------------------------------------------------------|
E|----------------------------------------------------------------|

E|-------------------------------------------------------------|
B|15---15--15--15--15---15--15--15-----------------------------|
G|18^-18^-18^-18^-18^-18^-18^-18^------------------------------|
D|-------------------------------------------------------------|
A|-------------------------------------------------------------|
E|-------------------------------------------------------------|

Have a nice playing for intro and solo. I'll try to catch chorus.
Jesus bless you.
Tap to rate this tab
# A B C D E F G H I J K L M N O P Q R S T U V W X Y Z