Song name
# A B C D E F G H I J K L M N O P Q R S T U V W X Y Z

Delirious - Miracle Maker tab

------------------------------------|
------------------------------------|
4h5p2h4-5-5s13-13--4b5-4-5-5s13-13--|
------------------------------------|
------------------------------------|
------------------------------------|

------------------------------------|
----10b11*---------8b9-8------------|
-10---------7h8-10-------10-8-------|
------------------------------------|
------------------------------------|
------------------------------------|

------------------------------------|
------------8-10b11-9-8-------------|
-9--10-9h10-------------10-7--8-----|
------------------------------------|
------------------------------------|
------------------------------------|

------------------------------------|
------------------------------------|
-10-7-8-10--4h5h7p4h5--7h8p7p5h7----|
------------------------------------|
------------------------------------|
------------------------------------|

------------------------------------|
-8h9p8p6h8--15-15b16----------------|
------------------------------------|
------------------------------------|
------------------------------------|
------------------------------------|
Tap to rate this tab
# A B C D E F G H I J K L M N O P Q R S T U V W X Y Z