Song name
# A B C D E F G H I J K L M N O P Q R S T U V W X Y Z

Delirious - Majesty Here I Am tab

Am  x02210
G2  3x0203
F   133211

intro/verse:

E------------------------------------------------------------------------|
B--1--------1-------0--------0-------------------------------------------|
G---------2----------------2---2------------2-2----2----------2-2----2---|
D------------------------------------------------------------------------|
A-----0-----------------------------------------3-----3------------3--3--|
E-----------------------3--------------------------------1-1-------------|

     (Am)             (G2)                  (F)


And that weird Bm chord:
E-------------------------------|
B--(5)---3----------0-----------|
G------------2-----------2------|
D----------0---0------------0---|
A---------------------2---------|
E-------------------------------|

      (Bm/D)           (Bm)
Tap to rate this tab
 
# A B C D E F G H I J K L M N O P Q R S T U V W X Y Z