Song name
# A B C D E F G H I J K L M N O P Q R S T U V W X Y Z

Delirious - Im Not Ashamed tab

This is an excellent Song.... This song is definatley in Drop D!

Tabbed by: Mucho-Mum
Date:Saturday 9th June, 10:59 2007


Intro:


E---------------------|I
B---------------------|I
G---------------------|I (Repeat as many times as you need to!)
D--0*--------0h2p0----|I
A--0*-----0h2---------|I
D--0*-----------------|I

Verse:

E------------------------|
B------------------------|
G------------------------|
D--2*-----5*-----0*------|
A--2*-----5*-----0*------|
D--2*-----5*-----0*------|

Chorus:
(Double Time)

E-------------------------------------------------|
B-------------------------------------------------|
G-------------------------------------------------|  (Repeat)
D-2-2-2-2-2-2-2-2-5-5-5-5-5-5-5-5-0-0-0-0-0-0-0-0-|
A-2-2-2-2-2-2-2-2-5-5-5-5-5-5-5-5-0-0-0-0-0-0-0-0-|
D-2-2-2-2-2-2-2-2-5-5-5-5-5-5-5-5-0-0-0-0-0-0-0-0-|

Verse

Chorus

Coda: just a build up like this:

E-----------------|
B-----------------|
G-----------------|
D-0-0-0-0-0-0-0-0-|
A-0-0-0-0-0-0-0-0-|
D-0-0-0-0-0-0-0-0-|

Then there is a massive solo that i just can't quite work out...

Solo:

E-10-10-10-10-10---------------|
B-13^13^13^13^13^-10-----------|
G-----------------10-----------|
D---------------------12--12---|
A------------------------------|
D------------------------------|


Chorus

Outro Solo:


E-10h13p10---------10h13p10--------10h13p10----------|
B---------10h13p10---------10h13p10--------10h13p10--|
G----------------------------------------------------|
D----------------------------------------------------|
A----------------------------------------------------|
D----------------------------------------------------|

End:

E------------------------------------------|
B------------------------------------------|
G------------------------------------------|
D-0*---------------------------------------|
A-0*---------------------------------------|
D-0*---------------------------------------|

Easy song.....
Tabbed by: Mucho-Mum
Date:Saturday 9th June, 10:59 2007
Tap to rate this tab
# A B C D E F G H I J K L M N O P Q R S T U V W X Y Z