Song name
# A B C D E F G H I J K L M N O P Q R S T U V W X Y Z

Deliverance - Jehova Jireh tab

Help us improve GuitareTab! Take a short survey!
  Song:Jehova Jireh
  Band:Deliverance
  CD:Deliverance
  Copyright:c 1998 KMG Records,Inc.
  Tabbed by Ed Morones

     INTRO:gtr.1

  e--------------------------|Play 4x's
  B--------------------------|
  G--------------------------|
  D--------------------------|
  A--2---5--3-5--3-5-7-9-10--|
  E--0---3--1-3--1-3-5-7--8--|

     INTRO:gtr.2
     play this part 1 time               play this part3x's
  e------------------------------------|-12-10-8-7-8-10-5-7-8-10-|
  B------------------------------------|-------------------------|
  G--9-7-5-4-5-7-2-4-5-7-5-4-2-4-5-7-9-|-------------------------|
  D------------------------------------|-------------------------|
  A------------------------------------|-------------------------|
  E------------------------------------|-------------------------|

  e-8-7-5-7-8-10-12-|
  B-----------------|
  G-----------------|
  D-----------------|
  A-----------------|
  E-----------------|

   RIFF1:play 1 time then verse starts and play 2x's

    Jehova Jireh                       my provider...............
  e--------------------------------------------------------------|
  B--------------------------------------------------------------|
  G--------------------------------------------------------------|
  D--9-------------------------------9-10-------------10--10-9-7-|
  A--7-------------------------------7--8--------------8---8-7-5-|
  E--0-000-000-000-000-000-000-000-000---000-000-000-000-00------|



    ....................................
  e-------------------------------------|
  B-------------------------------------|
  G-------------------------------------|
  D-------------5-------4-2--4--5--7--9-|
  A-------------3-------2-0--2--3--5--7-|
  E--000-000-000-000-000----------------|

   RIFF2:
    The Lord will...........................glory
  e-----------------------------------------------------------|
  B-----------------------------------------------------------|
  G-----------------------------------------------------------|
  D--2~~~~~~~~~-----------------------------2~~~--------------|
  A--0~~~~~~~~~0-3-0-5~~~~~~~xx5xx5-5~~~~~~~0~~~3-2-0-3-2-0---|
  E-----------------33~~~~~~~xx3xx3-3~~~~~~~---------3-----3--|


    The Lord will............................Jehova Jireh.........
  e----------------------------------------------------------------|
  B----------------------------------------------------------------|
  G----------------------------------------------------------------|
  D--2~~~~~~~~~----------------------------------------------------|
  A--0~~~~~~~~~0-3-0-5~~~~~~~xx5xx5-5~~~~~~~~5~~~~~~~~~~~3~~~~~~~2-|
  E-----------------33~~~~~~~xx3xx3-3~~~~~~~~3~~~~~~~~~~~1~~~~~~~0-|


    me  of me of me
  e-----------------|
  B-----------------|this is what they play as the ending.
  G-----------------|
  D--2--4--5--7--9--|
  A--0--2--3--5--7--|
  E-----------------|

   That's pretty much it you can figure the different nuances
   by listening to the CD.I am thinking of doing the solo depending
   on the feed back.


   Do not archive without permission
   Any Q's or com's email Ed at
   5150rocker@sbcglobal.net
Related for Jehova Jireh tab