Song name
# A B C D E F G H I J K L M N O P Q R S T U V W X Y Z

Deliverance - Dueling Banjos tab

capo on 2nd 

intro G x3, C, G   play intro 4 times



|-------------------------|          |------------------|
|-------------------------|          |----------0--0----|
|--4-5-7---4-5-----4------|  x2      |----0-0-2---0--2--|
|--------------7-----5--7-|          |--0---------------|
|-------------------------|          |------------------|
|-------------------------|          |------------------|


|----------------------------------------------------------------------------
|----------------------------------------------------------------------------
|---------------------------------------------------------------0------------
|--------------0-----------------------0-----------------0-2-3-----3-2-------
|--------0-2-3---3-2------------0-2-3-----3-2-----3-3-3----------------------
|--3-3-3------------------3-3-3----------------------------------------------

 -------------------------------------------------|
 -------------------------------------------------|
 ----------------------------------------0-2-0----| 
 ---------------0-------------0-0-0--2-4-------4--|
 ---------0-2-3---3-2-----------------------------|
 ---3-3-3-----------------------------------------|
  
  G x3, C, G play this twice 


After you play this, repeat everything except only faster

Dueling part 

|-----------|
|-----------|
|-----------| just play C, G, D, G, C, G, D 
|-----------|
|-----0-2-3-|
|--3--------|


|-----------------------------------------------------------------------
|-----------------------------------------------------------------------
|-------------------------------------------------------------0---------
|--------------0-----------------------0----------------0-2-3-----3-2---
|--------0-2-3----3-2------------0-2-3---3-2-----3-3-3------------------
|--3-3-3-------------------3-3-3----------------------------------------


 -----------------------------------------------|
 -----------------------------------------------|
 -------------------------------------0-2-0-----| G x3, C  play twice
 --------------0-----------0-0-0--2-4-------4---|
 --------0-2-3----3-2---------------------------|
 --3-3-3----------------------------------------|

 play this a lot faster

|-------------------------|          |------------------|
|-------------------------|          |----------0--0----|
|--4-5-7---4-5-----4------|  x2      |----0-0-2---0--2--|
|--------------7-----5--7-|          |--0---------------|
|-------------------------|          |------------------|
|-------------------------| 




|-----------|
|-----------|
|-----------| then play C, G, D, G, C, G, D, G
|-----------|
|-----0-2-3-|
|--3--------|
Tap to rate this tab
# A B C D E F G H I J K L M N O P Q R S T U V W X Y Z