Song name
# A B C D E F G H I J K L M N O P Q R S T U V W X Y Z

Deliverance - Dualling Banjos tab

Help us improve GuitareTab! Take a short survey!
-----------------------------------------------------------------------------
		     Dualling Banjos  DELIVERANCE
-----------------------------------------------------------------------------
Tabbed by: Barracuda22
Email: Barracuda22

Tuning: Standard

Right, this tab is from the film Deliverance, its probably one of the only parts I 
anyway, I'm not tabbing the whole thing but I'll produce the main part of the song, here 
(and don't give me greif, I'm only sixteen)
The song is basically A, E, and D major scales

e|-----------------------------------------------------------------------------|
B|---2--3--5--2--3-----2----------2--3--5--2--3-----2--------------------------|
G|------------------4-----2--4-------------------4-----2--4--------------------|
D|-----------------------------------------------------------------------------|
A|-----------------------------------------------------------------------------|
E|-----------------------------------------------------------------------------|

e|---------------------------------------------------------------------------|
B|--------------2-----2----------------------2-----2-------------------------|
G|-----2--2--4-----2-----4----------2--2--4-----2------4---------------------|
D|--2---------------------------2--------------------------------------------|
A|---------------------------------------------------------------------------|
E|---------------------------------------------------------------------------|

e|-----------------------------------------------------------------------------|
B|------------------------------------------2-3-5-3-2--------------------------|
G|----------------------------------2-2-2-4------------------------------------|
D|-----------------0--2--0-----------------------------------------------------|
A|--0--0--0--2--4----------4---------------------------------------------------|
E|-----------------------------------------------------------------------------|
                                                                         [x2]


e|-------------------------------------2-3-5-3-2-------------------------------|
B|----------------------------3-3-3-5------------------------------------------|
G|-------------0-2-0-----------------------------------------------------------|
D|--0-0-0-2-4--------4---------------------------------------------------------|
A|-----------------------------------------------------------------------------|
E|-----------------------------------------------------------------------------|


e|-----------------------------------------------------------------------------|
B|------------------------------------------2-3-5-3-2--------------------------|
G|----------------------------------2-2-2-4------------------------------------|
D|-----------------0--2--0-----------------------------------------------------|
A|--0--0--0--2--4----------4---------------------------------------------------|
E|-----------------------------------------------------------------------------|

e|-------------------------------------0--0--0--0--0---------------------------|
B|-------------------------------------2--2--2--3--2---------------------------|
G|------------1-2-4-2-1----------------2--2--2--2--2-----2--2--2--2--2---------|
D|---2-2-2-4---------------------------2--2--2--2--2-----2--2--2--4--2---------|
A|-------------------------------------0--0--0--0--0-----0--0--0--0--0---------|
E|-----------------------------------------------------------------------------|

Then repeat and get faster, I couldn't tab the rest because its super fast banjoing, hope this tab helps
Related for Dualling Banjos tab