Song name
# A B C D E F G H I J K L M N O P Q R S T U V W X Y Z

Delorentos - Basis Of Everything tab

Basis of Everything (Standard Tuning)


Intro  -  Guitar 1 (Ró)

Riff 1

E --------------------------------------------|
B -------10---12---------10---12--------------|
G --11-------------11---------------9---7-----|
D --------------------------------------------|
A --------------------------------------------|
E --------------------------------------------|    x3

E --------------------------------------------|
B -------10---12-------------10---12----------|
G --11-------------11---11------------11------|
D --------------------------------------------|
A --------------------------------------------|
E --------------------------------------------|

Riff 2

E --------------------------------------------|
B -------10---12---------10---12--------------|
G --11-------------11---------------9---7-----|
D --------------------------------------------|
A --------------------------------------------|
E --------------------------------------------|

E ----------------------------10--------------|
B -------10---12---------10--------10---12----|
G --11-------------11-------------------------|
D --------------------------------------------|
A --------------------------------------------|
E --------------------------------------------|

E --------------------------------------------|
B -------10---12---------10---12--------------|
G --11-------------11---------------9---7-----|
D --------------------------------------------|
A --------------------------------------------|
E --------------------------------------------|

E --------------------------------------------|
B -------10---12-------------10---12----------|
G --11-------------11---11------------11------|
D --------------------------------------------|
A --------------------------------------------|
E --------------------------------------------|


Verse

  Let notes ring out

E --------------------------------------------|
B ---10------12------14------12---------------|
G -------11------11------11------11-----------|
D --------------------------------------------|
A --------------------------------------------|
E --------------------------------------------|  x2


E ---10------12------14------12---------------|
B -------10------10------10------10-----------|
G --------------------------------------------|
D --------------------------------------------|
A --------------------------------------------|
E --------------------------------------------|  x2

Chorus:   Repeat Riff 2

Breakdown   (Strum these chords)

E ---10-----10--------|
B ---10-----12--------|
G ---11-----11--------|
D ---12-----12--------|
A --------------------|
E --------------------|




Bridge   (Listen for number of times note is played)

E ---------------14-------------14------------|
B ----15----14-------12----14-----------------|
G --------------------------------------------|
D --------------------------------------------|
A --------------------------------------------|
E --------------------------------------------|  Repeat


Guitar 2 (Kieran) (All octaves. Strum these. Listen for rhythm.)

Intro

(Riff 1)

E ------------|
B ------------|
G ----12------|
D ------------|
A ----10------|
E ------------|

Riff 2

E ---------------------------------------------------------|
B ---------------------------------------------------------|
G ---12--11--9--7-----12--11--9--7-----14--12--11--12--14--|
D ---------------------------------------------------------|
A ---10--9---7--5-----10--9---7--5-----12--10--9---10--12--|
E ---------------------------------------------------------|

Verse  (Guitar 2 plays nothing)



Breakdown (Riff 3)

E --------------------------------------|
B --------------------------------------|
G ----12-----11-------------------------|
D --------------------------------------|
A ----10-----9--------------------------|
E --------------------------------------|

Chorus (Riff 4)

E --------------------------------------|
B --------------------------------------|
G ---4-----7----12----7----6------------|
D --------------------------------------|
A ---2-----5----10----5----4------------|
E --------------------------------------|


Bridge  (Riff 5) (All along I was only trying...)

E -----------------------------------------|
B -----------------------------------------|
G ---12----11----14----12----11---12---14--|
D -----------------------------------------|
A ---10----9-----12----10----9----10---12--|
E -----------------------------------------|




Delorentos - 'Basis of Everything'
Taken from the album 'In Love With Detail' 2007
Tab by http://www.twitter.com/Podge_b
Tap to rate this tab
 
# A B C D E F G H I J K L M N O P Q R S T U V W X Y Z