Guitaretab - guitar tabs
Song name
# A B C D E F G H I J K L M N O P Q R S T U V W X Y Z

Delorentos - The Rules tab

-------------------------------------------------------------------------------
			     THE RULES - Delorentos
-------------------------------------------------------------------------------
Tabbed by: kazkiely
Email: karen-kiely@hotmail.com

www.delorentos.net
http://www.myspace.com/delorentos

Heyhey, this is The Rules by fab new Irish band Delorentos and tis pretty easy so 
Will work on the solo and try get it up here soon.

Tuning: Standard

INTRO
[0:00]
Guitar 1
e|---12-8-12-8-12-13-12---|
B|------------------------|
G|------------------------|
D|------------------------|
A|------------------------|
E|------------------------|

[0:03]
Guitar 1
e|---12-8-12-8-12-13-12---12-8-12-8-15-13-12-8----------|
B|------------------------------------------------------|
G|------------------------------------------------------|
D|------------------------------------------------------|
A|------------------------------------------------------|
E|------------------------------------------------------|

Guitar 2
e|-----------|
B|-----------|
G|---5-------|
D|---5-x24---|
A|---3-------|
E|-----------|

[0:10]
Guitar 1
e|---10-8---------------8--10-8----------------------------------------------|
B|--------12-10-8-10-12---------12-10-8--------------------------------------|
G|---------------------------------------10p9-7------------------------------|
D|---------------------------------------------------------------------------|
A|---------------------------------------------------------------------------|
E|---------------------------------------------------------------------------|

Guitar 2
e|-----------|
B|-----------|
G|-----------|
D|----5------|
A|----5-x24--|
E|----3------|

VERSE
[0:16]
Guitar 1
e|---12-8-12-8-15-13-12-8---12-8-12-8-15-13-12-8-----------------------------|
B|---------------------------------------------------------------------------|
G|---------------------------------------------------------------------------|
D|---------------------------------------------------------------------------|
A|---------------------------------------------------------------------------|
E|---------------------------------------------------------------------------|

e|---10-8---------------8-10-8-----------------------------------------------|
B|--------12-10-8-10-12--------12-10-8---------------------------------------|
G|--------------------------------------10p9-7-------------------------------|
D|---------------------------------------------------------------------------|
A|---------------------------------------------------------------------------|
E|---------------------------------------------------------------------------|

[0:29]
Guitar 1
e|---12-8-12-8-15-13-12-8---12-8-12-8-15-13-12-8---10-10-8-8-----------------|
B|------------------------------------------------------------12-12-10-10----|
G|---------------------------------------------------------------------------|
D|---------------------------------------------------------------------------|
A|---------------------------------------------------------------------------|
E|---------------------------------------------------------------------------|

Guitar 2
e|-------------|
B|-------------|
G|---5---------|
D|---5-x24-----|
A|---3---------|
E|-------------|

[0:35]
Guitar 1
e|---10-10-8-8---------------10-10-8-8---------------------------------------|
B|--------------12-12-10-10-------------12-12-10-10--8--8--------------------|
G|---------------------------------------------------------------------------|
D|---------------------------------------------------------------------------|
A|---------------------------------------------------------------------------|
E|---------------------------------------------------------------------------|

BRIDGE 1
[0:41]
Guitar 1
e|---------------------------|
B|--------8--10--8--10--12---|
G|---10----------------------|
D|---------------------------|
A|---------------------------|
E|---------------------------|

Guitar 2
e|-------------------|
B|-------------------|
G|-------------------|
D|---3-ó--------5----|
A|---3----------5----|
E|---1----------3----|

CHORUS
[0:48]
Guitar 2
e|---------------------------------------------------------------------------|
B|---------------------------------------------------------------------------|
G|---5---------------5-------------------------------------------------------|
D|---5-x16---5-------5-x16---5-------3-------5-------------------------------|
A|---3-------5-x16---3-------5-x16---3-x16---5-x16---------------------------|
E|-----------3---------------3-------1-------3-------------------------------|
[ Tab from: http://www.guitaretab.com/d/delorentos/75500.html ]
BRIDGE 2
[1:07]
Guitar 1
e|---12-8-12-8-15-13-12-8---12-8-12-8-15-13-12-8-----------------------------|
B|---------------------------------------------------------------------------|
G|---------------------------------------------------------------------------|
D|---------------------------------------------------------------------------|
A|---------------------------------------------------------------------------|
E|---------------------------------------------------------------------------|

e|---10-8---------------8-10-8-----------------------------------------------|
B|--------12-10-8-10-12--------12-10-8---------------------------------------|
G|--------------------------------------10p9-7-------------------------------|
D|---------------------------------------------------------------------------|
A|---------------------------------------------------------------------------|
E|---------------------------------------------------------------------------|

Guitar 2
e|---------------------------------------------------------------------------|
B|---------------------------------------------------------------------------|
G|---5-----------------------------------------------------------------------|
D|---5-x24---5---------------------------------------------------------------|
A|---3-------5-x24-----------------------------------------------------------|
E|-----------3---------------------------------------------------------------|

VERSE 2
[1:20] (drums and bass only)

[1:31]
Guitar 2
e|---------------|
B|---------------|
G|---5-----5-----|
D|---5-x8ó-5-x24-|
A|---3-----3-----|
E|---------------|

[1:39]
Guitar 1
e|------------------------------------------------------------|
B|--------8-10-8------------8-10-8--12-10-8---8---------------|
G|---8-10--------------8-10-----------------------------------|
D|------------------------------------------------------------|
A|------------------------------------------------------------|
E|------------------------------------------------------------|


[1:45]
Guitar 1
e|---------------------------|
B|--------8--10--8--10--12---|
G|---10----------------------|
D|---------------------------|
A|---------------------------|
E|---------------------------|

Guitar 2
e|-------------------|
B|-------------------|
G|-------------------|
D|---3-ó--------5----|
A|---3----------5----|
E|---1----------3----|

CHORUS
[1:45]
Guitar 2
e|---------------------------------------------------------------------------|
B|---------------------------------------------------------------------------|
G|---5---------------5-------------------------------------------------------|
D|---5-x16---5-------5-x16---5-------3-------5-------------------------------|
A|---3-------5-x16---3-------5-x16---3-x16---5-x16---------------------------|
E|-----------3---------------3-------1-------3-------------------------------|

SOLO
[2.10]

CHORUS
[2:36]
Guitar 2
e|---------------------------------------------------------------------------|
B|---------------------------------------------------------------------------|
G|---5---------------5-------------------------------------------------------|
D|---5-x16---5-------5-x16---5-------3-------5-------------------------------|
A|---3-------5-x16---3-------5-x16---3-x16---5-x16---------------------------|
E|-----------3---------------3-------1-------3-------------------------------|

[2:55]
Guitar 1
e|--12-8-12-8-12-13-12---|
B|-----------------------|
G|-----------------------|
D|-----------------------|
A|-----------------------|
E|-----------------------|

Guitar 2
e|-----------|
B|-----------|
G|---5-------|
D|---5-x16---|
A|---3-------|
E|-----------|

[2:58]
Guitar 2
e|-----------|
B|-----------|
G|-----------|
D|---5-------|
A|---5-x16---|
E|---3-------|

[3:01]
Guitar 1
e|--12-8-12-8-12-13-12---|
B|-----------------------|
G|-----------------------|
D|-----------------------|
A|-----------------------|
E|-----------------------|

Guitar 2
e|-----------|
B|-----------|
G|---5-------|
D|---5-x16---|
A|---3-------|
E|-----------|

[3:04]
Guitar 2
e|-----------|
B|-----------|
G|-----------|
D|---5-------|
A|---5-x16---|
E|---3-------|

e|-------------------------|
B|-------------------------|
G|-------------------------|
D|----3-------5------------|
A|----3-x16---5-x16--------|
E|----1-------3------------|

OUTRO
e|-------------------|
B|-------------------|
G|-------------------|
D|---3-ó--------5----|
A|---3----------5----|
E|---1----------3----|


VERSE 1
Itís just a figure of speech
I canít claim to know your geography
But oh
I have all the clues
Shot down ??? [not sure whatís said here]
You canít have an effect
If youíve never had a cause
Itís true
That I donít know the rules

BRIDGE
And all the time weíve been talking
Iíve been thinking

CHORUS
Oh what a waste of my time
Iíve been going out of my mind
What was I thinking
Coming here tonight
Said a little too much
Had a little too much.

VERSE 2
Knock back ??? [Öor here]
And donít say to me
That you wouldnít understand
Itís true
Iím barely out of school
Attack, better take it all back
And make it all up
Ignoring all the facts
Itís true
That I donít know the rules

BRIDGE
And all the time weíve been talking
Iíve been thinking

CHORUS

[SOLO]

CHORUS

CHORUS
(Iíve been thinking)
Oh what a waste of my time
Iíve been going out of my mind
What was I thinking
Coming here tonight
Said a little too much
Had a little too much.

OUTRO
We fell outta touch
It wasnít enough
Related for The Rules tab