Song name
# A B C D E F G H I J K L M N O P Q R S T U V W X Y Z

Delorentos - Basis Of Everything tab

Hay dis is me first so dont judge it to bad

E/-------5--7--0-----7--5--0-|
B/----7-----------7----------|
G/---------------------------| x3
D/---------------------------|
A/---------------------------|
E/---------------------------|

E/-------5--7--0----|
B/----7-------------|
G/------------------| x2
D/------------------|
A/------------------|
E/------------------|

E/-------5--7--0-----7--5--0-|
B/----7-----------7----------|
G/---------------------------|
D/---------------------------|
A/---------------------------|
E/---------------------------|

E/-------5--7--0--10--5--7--0-|
B/----7-----------------------|
G/----------------------------|
D/----------------------------|
A/----------------------------|
E/----------------------------|

E/-------5--7--0-----7--5--0-|
B/----7-----------7----------|
G/---------------------------|
D/---------------------------|
A/---------------------------|
E/---------------------------|

E/-------5--7--0----|
B/----7-------------|
G/------------------| x2
D/------------------|
A/------------------|
E/------------------|


Well dats it so far i counldnt be bothered doin de rest ............... Well anyway the 
album is amazin - By Caz
Tap to rate this tab
# A B C D E F G H I J K L M N O P Q R S T U V W X Y Z