Guitaretab - guitar tabs
Song name
# A B C D E F G H I J K L M N O P Q R S T U V W X Y Z

Delta Spirit - Trashcan tab

-------------------------------------------------------------------------------
			     TRASHCAN  Delta Spirit
-------------------------------------------------------------------------------
Tabbed by: Dobey562
Email: dfremgen@gmail.com

Tuning: Standard

This is a great song by Delta Spirit off the new album Ode to Sunshine.  Best new band ever.

Piano Intro:

e|---/2--2-2-2----------------------------/2--2-2-2--------------------------|
B|-------------4-2-4/5--5-5-5-5-4-2------------------4-2-4/5--5-5-5-5-5-5-5--|
G|---------------------------------3-----------------------------------------|
D|---------------------------------------------------------------------------|
A|---------------------------------------------------------------------------|
E|---------------------------------------------------------------------------|

e|---/2--2-2-2----------------------------/2--2-2-2--------------------------|
B|-------------4-2-4/5--5-5-5-5-4-2------------------4-2---------------------|
G|---------------------------------3-----------------------------------------|
D|-------------------------------------------------------4--4-4-4-4----------|
A|---------------------------------------------------------------------------|
E|---------------------------------------------------------------------------|

This is played again over the verse after the lyrics in each phrase

Verse:
[ Tab from: http://www.guitaretab.com/d/delta-spirit/98083.html ]
     F#  B   G#min  F#
e|---2-------4------2---------------------------------------------------------|
B|---2---4---4------2---------------------------------------------------------|
G|---3---4---4------3---------------------------------------------------------|
D|---4---4---6------4---------------------------------------------------------|
A|---4---2---6------4---------------------------------------------------------|
E|---2-------4------2---------------------------------------------------------|

The first two times the lyrics start on the F but the last two times in the verse the 
start on B, so just listen for it.

Chorus:
     C#  C   B	    E   F   F#
e|-------------------0---1---2-----------------------------------------------|
B|---6---5---4-------0---1---2-----------------------------------------------|
G|---6---5---4-------1---2---3-----------------------------------------------|
D|---6---5---4-------2---3---4-----------------------------------------------|
A|---4---3---2-------2---3---4-----------------------------------------------|
E|-------------------0---1---2-----------------------------------------------|

For the last chorus the C# C B progression is repeated three times

Enjoy!

| /  slide up
| \  slide down
| h  hammer-on
| p  pull-off
| ~  vibrato
| +  harmonic
| x  Mute note
===============================================================================
Related for Trashcan tab
Trashcan chords by Delta Spirit