Song name
# A B C D E F G H I J K L M N O P Q R S T U V W X Y Z

Deluge - Unshakable tab

i can't play it as fast as them but i think that sounds right. This is my first tab so 
comment
or tell me if something is wrong with the tab thanks for looking
e----------------------------------------------------------------|
b--------------------------------------------8b10----------------|
g----------------------------------------------------------------|
d----------------------------------------------------------------|
a--5-7-8----3-2--0--------------3--2-------3/5-------------------|
D--------7------0---0-5-0-3-2-0-----3-2-0------------------------|

e----------------------------------------------------------------|
b--------------------------------------------11b13---------------|
g----------------------------------------------------------------|
d----------------------------------------------------------------|
a--5-7-8----3-2--0--------------3--2-------3/5-------------------|
D--------7------0---0-5-0-3-2-0-----3-2-0------------------------|

b= bend

/= slide
Tap to rate this tab
 
# A B C D E F G H I J K L M N O P Q R S T U V W X Y Z