Deluge - I Believe tab

-----------------------------------------------------------------------------
		           I BELIEVE - Deluge
-----------------------------------------------------------------------------
Album: Live from Bethany World Prayer Center
Tabbed by: Tony Ambrose
Email: rvlntcfrnd@yahoo.com

Tuning: Standard

Intro (Play 6x after Bass plays it 2x)
   D       A       Bm      G
e|---------------------------------|
B|---------------------------------|
G|-----------------------------2---|
D|-0-0-4h5-------------------------|
A|---------0-0-5p4-2-2-4h5---------|
E|-------------------------3-3-----|


Verse (Repeat throughout)
   D     A        Bm9     G
e|----------------------------------|
B|----------------------------------|
G|-----7------------------------2---|
D|---7-------7---------11-----5-----|
A|-5-------7---7-----9------5-------|
E|-------5-------5/7------3---------|


Chorus
   A               D               G
e|-----------------------------------------------------------------|
B|-----------------------------------------------------------------|
G|-----------------7---7---7---7-----------------------------------|
D|-7---7---7---7---7---7---7---7---5---5---5---5---5---5---5---5---|
A|-7---7---7---7---5---5---5---5---5---5---5---5---5---5---5---5---|
E|-5---5---5---5-------------------3---3---3---3---3---3---3---3---|
Play these chords 3x, then:
                  A      A      D      D   G
e|--------------------------------------------------------------------------|
B|--------------------------------------------------------------------------|
G|------------------------------7------7------------------------------------|
D|----------------7------7------7------7------------------------------------|
A|----------------7------7------5------5--------4-5-----4-5-----4-5-7-5-4---|
E|----------------5------5------------------3-3-----3-3-----3-3-------------|
  That they can't   take    You   away from me


Bridge
Slow slides (1st 2 times through the bridge)
e|--------------------------------------------------------------------------|
B|-7/10----12\7----7\5------5----7/10----12\10---8\7------------------------|
G|--------------------------------------------------------------------------|
D|---------------------7----------------------------------------------------|
A|--------------------------------------------------------------------------|
E|--------------------------------------------------------------------------|

Then play this progression 8x (Which equals 2x through the bridge lyrics)
   D     A        Bm9     G
e|----------------------------------|
B|----------------------------------|
G|-----7------------------------2---|
D|---7-------7---------11-----5-----|
A|-5-------7---7-----9------5-------|
E|-------5-------5/7------3---------|

Then these power chords 8x (Which also equals 2x through the bridge lyrics)
   D       A       Bm      G
e|--------------------------------------------------------------------------|
B|--------------------------------------------------------------------------|
G|-7---7--------------------------------------------------------------------|
D|-7---7---7---7---9---9---5---5--------------------------------------------|
A|-5---5---7---7---9---9---5---5--------------------------------------------|
E|---------5---5---7---7---3---3--------------------------------------------|

Then it's one more chorus and end on a big D chord.

************************************

| /   slide up
| \   slide down
| h   hammer-on
| p   pull-off

************************************
Tap to rate this tab
 
# A B C D E F G H I J K L M N O P Q R S T U V W X Y Z