Song name
# A B C D E F G H I J K L M N O P Q R S T U V W X Y Z

Deluge - Unshakable tab

e|---------------------------------------------------------------------------|
B|-------------------------------------------------------------------10------|
G|-------------------------------------------------------------------12b(1)--|
D|---------------------------------------------------------------------------|
A|----5--7--8-----3-2-0--------------------3--2----------3/5-----------------|
D|------------------------3brž----/5-3-2-0----------3-2-0--------------------|



e|---------------------------------------------------------------------------|
B|--------------------------------------------------------------------13-----|
G|--------------------------------------------------------------------15b(1)-|
D|---------------------------------------------------------------------------|
A|----5--7--8-----3-2-0--------------------3--2----------3/5-----------------|
D|------------------------3brž----/5-3-2-0----------3-2-0--------------------|

e|---------------------------------------------------------------------------|
B|---------------------------------------------------------------------------|
G|---------------------------------------------------------------------------|
D|---------------------------------------------------------------------------|
A|----5--7--8-----3-2-0--------------------3--2----------3/5-----------------|
D|------------------------3brž----/5-3-2-0----------3-2-0--------------------|
Tap to rate this tab
 
# A B C D E F G H I J K L M N O P Q R S T U V W X Y Z