Song name
# A B C D E F G H I J K L M N O P Q R S T U V W X Y Z

Deluhi - Skapgoat tab

|---3---|  |---3---|  |----3---|  |----3---|   
  E   E   E  E   E   E  E   E    E  E   E    E   
------------------------------------------------|
------------------------------------------------|
------------------------------------------------|
-------------5h--7h--8--------------7h--8h--10--|
--5h--7h--8-------------7h--8h--10--------------|
------------------------------------------------|


  |----3----|  |----3----|  |----3---|  |----3---|   
  E    E    E  E    E    E  E   E    E  E   E    E   
----------------------------------------------------|
----------------------------------------------------|
----------------------------------------7h--9h--10--|
---------------8h--10h--12--7h--8h--10--------------|
--8h--10h--12---------------------------------------|
----------------------------------------------------|


   |---3---|   |---3---|  |----3---|  |----3---|   
   E   E   E   E   E   E  E   E    E  E   E    E   
--------------------------------------------------|
--------------------------------------------------|
--10p--9p--7--------------------------------------|
--------------10p--8p--7--------------7h--8h--10--|
--------------------------7h--8h--10--------------|
--------------------------------------------------|


   |----3----|   |----3----|   |----3----|   |----3----|   
   E    E    E   E    E    E   E    E    E   E    E    E   
----------------------------------------------------------|
----------------------------------------------------------|
----------------------------------------------------------|
----------------12h--14h--15--15p--14p--12----------------|
--12h--13h--15------------------------------15p--13p--12--|
----------------------------------------------------------|


   |----3----|   |----3----|   |----3----|   |---3---|   
   E    E    E   E    E    E   E    E    E   E   E   E   
--------------------------------------------------------|
--------------------------------------------------------|
--------------------------------------------14----------|
----------------14h--15h--17--14h--15h--17------17--15--|
--13h--15h--17------------------------------------------|
--------------------------------------------------------|


   |----3----|   |----3----|   |----3----|   |---3---|   
   E    E    E   E    E    E   E    E    E   E   E   E   
--------------------------------------------------------|
--------------------------------------------14----------|
----------------14h--15h--17--14h--15h--17------17--15--|
--14h--15h--17------------------------------------------|
--------------------------------------------------------|
--------------------------------------------------------|


   |----3----|   |----3----|   |----3----|   |---3---|   
   E    E    E   E    E    E   E    E    E   E   E   E   
--------------------------------------------13----------|
----------------14h--15h--17--14h--15h--17------17--15--|
--14h--15h--17------------------------------------------|
--------------------------------------------------------|
--------------------------------------------------------|
--------------------------------------------------------|


   |----3----|   |----3----|   |----3----|   |----3----|                   
   E    E    E   E    E    E   E    E    E   E    E    E                   
----------------13h--15h--17--17p--15p--13----------------|-------|-------|
--14h--15h--17------------------------------17p--15p--14--|-------|-------|
----------------------------------------------------------|-------|-------|
----------------------------------------------------------|-------|-------|
----------------------------------------------------------|-------|-------|
----------------------------------------------------------|-------|-------|
Tap to rate this tab
# A B C D E F G H I J K L M N O P Q R S T U V W X Y Z