Guitaretab - guitar tabs
Song name
# A B C D E F G H I J K L M N O P Q R S T U V W X Y Z

Dem - Koszmarna Noc tab

#----------------------------------PLEASE NOTE---------------------------------#
#This file is the author's own work and represents their interpretation of the #
#song. You may only use this file for private study, scholarship, or research. #
#------------------------------------------------------------------------------##
From: "PRZEMYSLAW WRZESINSKI" 
Date:          Tue, 5 Dec 1995 08:34:25 EST
Subject:       Koszmarna noc by Dzem

Group                            D+em
Title             Koszmarna noc from LP "Akustyczna-suplement"

Transcription:Mi|osz Zablocki and Przemek Wrzesi+/-ski
Tabbed by Przemek Wrzesi+/-ski

[ Tab from: http://www.guitaretab.com/d/dem/5043.html ]
e-||-----------------------|-------------------------||--------------\||
B-||--------1------3-1-----|------------------3------||---------------||
G-||------2---2--------2---|---------0-2-0-----------||---------------||
D-||----2-------2--------2-|------0--------0---------||---------------||
A-||--0--------------------|-------------------------||---------------||
E-||-----------------------|---3---------------------||---------------||


e-|--1-1-1--0-0-0----0--|--1-1-1--0-0-0----0--|--1-1-1--0-0-0----0---|\||
B-|--3-3-3--3-3-3----3--|--3-3-3--3-3-3----1--|--1-1-1--1-1-1----3-----||
G-|--2-2-2--2-2-2-------|--3-3-3--3-3-3-------|--0-0-0--0-0-0----------||
D-|--0-0-0--0-0-0-------|--0-0-0--0-0-0-------|--0-0-0--0-0-0----------||
A-|---------------------|--1-1-1--1-1-1-------|--3-3-3--3-3-3----------||
E-|---------------------|---------------------|------------------------||


e-|----------------------------|\||
B-|------------------------------||
G-|------------------------------||
D-|---0----3^----0---------------||
A-|--------------0---------------||
E-|------------------------------||


Any suggestions, questions and comments welcome.

Przemek Wrzesinski :   PWRZES@ELPIS.SGH.WAW.PL
                       PWRZES@SGH.WAW.PL