Song name
# A B C D E F G H I J K L M N O P Q R S T U V W X Y Z

Demented Are Go - Someones Out To Get Me tab

----------------------------------------------------------------------------
		  SOMEONE'S OUT TO GET ME - Demented Are Go
----------------------------------------------------------------------------
Tabbed by: ViolentWorld138
Email: Allmurder.allguts.allfun@hotmail.com

Tuning: Standard

A great song by Demented Are Go off of their Hellbilly Storm album. There are 2 
ways you can play this song, the RIGHT way, or the.. other way. They are both played with the 
notes, but the right way has a different sound then the other way.

INTRO:

1) Wrong way             2) RIGHT WAY
e|--------------         e|---------------|
B|--------------         B|---------------|
G|--------------         G|---------------|
D|------------2-   or    D|---0---------2-|
A|---5--------2-         A|0h2-2p1p0----2-|
E|5h7-7p6p5-3-0-         E|----------3--0-|

Simplified, But still have to play with pull offs.
e|--------------         e|---------------|
B|--------------         B|---------------|
G|--------------         G|---------------|
D|------------2-   or    D|---0---------2-|
A|---5--------2-         A|0-2-2-1-0----2-|
E|5-7-7-6-5-3-0-         E|----------3--0-|


VERSE:
I think two guitars are played here, one doing bar chords and one doing full chords.

  Guitar One
e|-------------------------------------------|
B|-------------------------------------------|
G|---2---------2--------2-----2---------2----|
D|2--2--2---2--2----2------2--2--2---2--2--2-|
A|2--0--2---2--0--2---2----2--0--2---2--0--2-|
E|0-----0---0--------------0-----0---0-----0-|

  Guitar Two
e|0--0--0---0--0------0--0--0-|
B|0--1--0---0--1------0--1--0-|
G|0--2--0---0--2--4---0--2--0-|
D|2--2--2---2--2--4---2--2--2-|
A|2--0--2---2--0--2---2--0--2-|
E|0-----0---0---------0-----0-|


Chorus:
  pm.....................................................
e|--------------------------------------------------------|
B|--------------------------------------------------------|
G|------------------------------------2---------2--4-2----|
D|---------------------------------2--2--2---2--2--4-2--2-|
A|------5--4--2--4--5--4--2-0------2--0--2---2--0--2-0--2-|
E|0-1-2-3--2--0--2--3--2------3-2--0-----0---0----------0-|
  (Strum as many times as needed)


That's all there is to it, except for the solo's.
Hope this helps anybody who wants to learn this awesome song by Demented Are Go.


************************************

| /   slide up
| \   slide down
| h   hammer-on
| p   pull-off
| ~   vibrato
| +   harmonic
| x   Mute note
| b   Bend
| pb  Pre-bend
| br  Bend release
| pbr Pre-bend release
| brb Bend release bend

************************************
Tap to rate this tab
 
# A B C D E F G H I J K L M N O P Q R S T U V W X Y Z