Demented Are Go - Zombie Stalk tab

Demented Are Go - Zombie Stalk
Tuning : Standard
Tabbed By : anarchoalan

INTRO : Palm Mute
E--------------------------------------------------------------------------|
B--------------------------------------------------------------------------|
G--------------------------------------------------------------------------|
D--------------------------------------------------------------------------|
A--0-33333-555-----x8------------------------------------------------------|
E---------------333--------------------------------------------------------|

INTRO : Continued
E--------------------------------------------------------------------------|
B--------------------------------------------------------------------------|
G--2-5-7-------------------------------------------------------------------|
D--2-5-7-5-----------------------------------------------------------------|
A--0-3-5-5---x4------------------------------------------------------------|
E--------3-----------------------------------------------------------------|

Verse
E--------------------------------------------------------------------------|
B--------------------------------------------------------------------------|
G--2-55555-777-------------------------------------------------------------|
D--2-55555-777-555---------------------------------------------------------|
A--0-33333-555-555---------------------------------------------------------|
E--------------333---------------------------------------------------------|

Chorus: The "They Want Your Brains" Part
E--------------------------------------------------------------------------|
B--------------------------------------------------------------------------|
G--7-5-2-------------------------------------------------------------------|
D--7-5-2-------------------------------------------------------------------|
A--5-3-0-------------------------------------------------------------------|
E--------------------------------------------------------------------------|
Thats all i got so far.
Tap to rate this tab
 
# A B C D E F G H I J K L M N O P Q R S T U V W X Y Z