Song name
# A B C D E F G H I J K L M N O P Q R S T U V W X Y Z

Demented Are Go - Satans Rejects tab

Satans Rejects by Demented Are Go!
from the Album: Satans Rejects

Intro and Verse:
e:|------------------------------------------------------------------------|
H:|------------------------------------------------------------------------|
G:|------------------------------------------------------------------------|
D:|------------------------------------------------------------------------|
A:|-----222-----111-----222-----0-232-------2-----111-----222-----0-232----|
E:|-0p3-----0p3-----0p3-----0p3-------32--0---0p3-----0p3-----0p3-------32-|

Chorus:
    listen to the song to get used to the rhythm! 
e:|----------------------------------------------------------|
H:|--------------------------------------------<____(3x)____>|
G:|----------------------------------------------------------|
D:|--5--4---7----5--4---2----5--4---7----5--4---9898-7-5-555-|
A:|--5--4---7----5--4---2----5--4---7----5--4---9898-7-5-555-|
E:|--3--2---5----3--2---0----3--2---5----3--2---7676-5-3-333-|

To me the tab sounds OK, what do you think?
I don't know the Solos because they're really difficult!!
Tap to rate this tab
# A B C D E F G H I J K L M N O P Q R S T U V W X Y Z