Song name
# A B C D E F G H I J K L M N O P Q R S T U V W X Y Z

Demented Are Go - Pvc Chair tab

Help us improve GuitareTab! Take a short survey!
Demented Are Go! - PVC Chair - In Sickness and In Health - Track 13

	INTRO RIFF
|----6--------2--------4--------1--------6--------2--------4--------1---|
|-------8--------4--------6--------3--------8--------4--------6-------3-|
|-----------------------------------------------------------------------|
|8-8-8----4-4-4----6-6-6----3-3-3----8-8-8----4-4-4----6-6-6----3-3-3---|
|8-8-8----4-4-4----6-6-6----3-3-3----8-8-8----4-4-4----6-6-6----3-3-3---|
|6-6-6----2-2-2----4-4-4----1-1-1----6-6-6----2-2-2----4-4-4----1-1-1---|

|----6--------2--------4--------1---------------------------------------|
|-------8--------4--------6--------3------------------------------------|
|-----------------------------------------------------------------------|
|8-8-8----4-4-4----6-6-6----3-3-3----8-8-8-8-4-4-4-4-6-6-6-6-3-3-3-3----|
|8-8-8----4-4-4----6-6-6----3-3-3----8-8-8-8-4-4-4-4-6-6-6-6-3-3-3-3----|
|6-6-6----2-2-2----4-4-4----1-1-1----6-6-6-6-2-2-2-2-4-4-4-4-1-1-1-1----|

	VERSE
|-----------------------------------------------------------------------|
|-----------------------------------------------------------------------|
|---------------------------------------------------------------------.-|
|8-8-8-8-4-4-4-4-6-6-6-6-3-3-3-3-8-8-8-8-4-4-4-4-6-6-6-6-3-3-3-3------.-|
|8-8-8-8-4-4-4-4-6-6-6-6-3-3-3-3-8-8-8-8-4-4-4-4-6-6-6-6-3-3-3-3--------|
|6-6-6-6-2-2-2-2-4-4-4-4-1-1-1-1-6-6-6-6-2-2-2-2-4-4-4-4-1-1-1-1--------|

	AFTER VERSE RIFF
|6--6-6------11--11-11------6--6-6------13--13--16-16-----6--6-6--------|
|6----6------11-----11------6----6------13------15-15-----6----6--------|
|8b---8b-----13b----13b-----8b---8b-----15b---------------8b---8b-------|
|-----------------------------------------------------------------------|
|-----------------------------------------------------------------------|
|-----------------------------------------------------------------------|

|11--11-11------6-----13-----6------------------------------------------|
|11-----11------6-----13-----6------------------------------------------|
|13b----13b-----8b----15b----8b--8brp6----------------------------------|
|--------------------------------------8--------------------------------|
|-----------------------------------------------------------------------|
|-----------------------------------------------------------------------|

|-----------------------------------------------------------------------|
|-----------------------------------------------------------------------|
|---------------------------------------------------------------------.-|
|8-8-8-8-4-4-4-4-6-6-6-6-3-3-3-3-8-8-8-8-4-4-4-4-6-6-6-6-3-3-3-3------.-|
|8-8-8-8-4-4-4-4-6-6-6-6-3-3-3-3-8-8-8-8-4-4-4-4-6-6-6-6-3-3-3-3--------|
|6-6-6-6-2-2-2-2-4-4-4-4-1-1-1-1-6-6-6-6-2-2-2-2-4-4-4-4-1-1-1-1--------|

|------------------------6----9--9-9--9-6-------------------------------|
|------------------------6----8--8-8------6---6-------------------------|
|-8b~----8-6---6---6-8-6-8b-----------------8---6-----8----------6-8-8b-|
|------------8---8--------------------------------------8~---6h8--------|
|-----------------------------------------------------------------------|
|-----------------------------------------------------------------------|

|-----------------------------------------------------------------------|
|-----------------------------------------------------------------------|
|-8b~---8b-8br---6-8-6~-------------------------------------------------|
|--------------8--------------------------------------------------------|
|-----------------------------------------------------------------------|
|-----------------------------------------------------------------------|

|-----------------------------------------------------------------------|
|-----------------------------------------------------------------------|
|---------------------------------------------------------------------.-|
|8-8-8-8-4-4-4-4-6-6-6-6-3-3-3-3-8-8-8-8-4-4-4-4-6-6-6-6-3-3-3-3------.-|
|8-8-8-8-4-4-4-4-6-6-6-6-3-3-3-3-8-8-8-8-4-4-4-4-6-6-6-6-3-3-3-3--------|
|6-6-6-6-2-2-2-2-4-4-4-4-1-1-1-1-6-6-6-6-2-2-2-2-4-4-4-4-1-1-1-1--------|

|6--6-6------11--11-11------6--6-6------13--13--16-16-----6--6-6--------|
|6----6------11-----11------6----6------13------15-15-----6----6--------|
|8b---8b-----13b----13b-----8b---8b-----15b---------------8b---8b-------|
|-----------------------------------------------------------------------|
|-----------------------------------------------------------------------|
|-----------------------------------------------------------------------|

|11--11-11------6-----13-----6---------6--6-6------11-11-11-----6--6-6--|
|11-----11------6-----13-----6-----6---6----6------11----11-----6----6--|
|13b----13b-----8b----15b----8b--8b----8b---8b-----13b---13b----8b---8b-|
|-----------------------------------------------------------------------|
|-----------------------------------------------------------------------|
|-----------------------------------------------------------------------|

|13-13--16-16-----6--6-6------11--11-11------6-----13-----6-----------||
|13-----15-15-----6----6------11-----11------6-----13-----6-----------||
|15b--------------8b---8b-----13b----13b-----8b----15b----8b----------||
|-----------------------------------------------------------------8---||
|-----------------------------------------------------------------8---||
|--------------------------------------------------------------7--6---||

Tabbed By: Daniel Atkinson
Related for Pvc Chair tab