Song name
# A B C D E F G H I J K L M N O P Q R S T U V W X Y Z

Demented Are Go - Queen Of Disease tab

riff 1
e-----------------------------------------------|
B-----------------------------------------------|
G-----------------------------------------------|
D-----------------------------------------------|
A-----------------------------------------------|
E--5-553-33-7-773-33----------------------------|

riff 2
e-----------------------------------------------|
B-----------------------------------------------|
G-----------------------------------------------|
D-5-4-56----------------------------------------|
A-5-4-56----------------------------------------|
E-3-2-45----------------------------------------|

riff 3
e-----------------------------------------------|
B-----------------------------------------------|
G----5~------4----------------------------------|
D-5--5~---5--4----------------------------------|
A--6-4~----5-2----------------------------------|
E-----------------------------------------------|
Tap to rate this tab
# A B C D E F G H I J K L M N O P Q R S T U V W X Y Z