Song name
# A B C D E F G H I J K L M N O P Q R S T U V W X Y Z

Demetri Martin - Theme Song tab

---1----1--          -1-1---1---4--4      --1-1--1-1--4-4--4-4-|
---1----2--          -1-1---1---4--6      --1-1--2-2--6-6--4-4-|
---2----3-- intro    -2-2---2---5--6  x2  --2-2--3-3--6-6--5-5-|
---3----3--          -3-3---3---6--6      --3-3--3-3--6-6--6-6-|
---3----1--          -3-3---3---6--4      --3-3--1-1--4-4--6-6-|
---1----1--          -1-1---1---4--4      --1-1--1-1--4-4--4-4-|

-1-1---1---4--4      --1-1--1-1--4-4--4-|
-1-1---1---4--6      --1-1--2-2--6-6--4-|
-2-2---2---5--6      --2-2--3-3--6-6--5-| play muted chords between if you want
-3-3---3---6--6      --3-3--3-3--6-6--6-|
-3-3---3---6--4      --3-3--1-1--4-4--6-|
-1-1---1---4--4      --1-1--1-1--4-4--4-|
Tap to rate this tab
 
# A B C D E F G H I J K L M N O P Q R S T U V W X Y Z