Song name
# A B C D E F G H I J K L M N O P Q R S T U V W X Y Z

Demetri Martin - Important Things Theme tab

-------------------------------------------------------------------------------
                             Important Things Theme - Demetri Martin
-------------------------------------------------------------------------------
Tabbed by: Max S

Tuning: Standard

Guitar: 

e|-----1--1-------1---4---4--4-----1---1-----1---1-----4---4-----4---4------------|
B|-----1--1-------1---4---6--6-----1---1-----2---2-----6---6-----4---4------------|
G|-----2--2-------2---5---6--6-----2---2-----3---3-----6---6-----5---5------------|
D|-----3--3-------3---6---6--6-----3---3-----3---3-----6---6-----6---6------------|
A|-----3--3-------3---6---4--4-----3---3-----1---1-----4---4-----6---6------------|
E|-----1--1-------1---4---4--4-----1---1-----1---1-----4---4-----4---4------------|

Synth Starts:

e|--------------------------------------------------------------------------------|
B|-----------4---1-----------1------4---1-----------1---4---1---------------------|
G|------------------------3--------------------------------------3----1~----------|
D|-----3-----------------------------------------3--------------------------------|
A|--------------------------------------------------------------------------------|
E|--------------------------------------------------------------------------------|

Under the synth, the guitar repeats, but ends on the g#

e|-----1--1-------1---4---4--4-----1---1-----1---1-----4---4-----4~---------------|
B|-----1--1-------1---4---6--6-----1---1-----2---2-----6---6-----4~---------------|
G|-----2--2-------2---5---6--6-----2---2-----3---3-----6---6-----5~---------------|
D|-----3--3-------3---6---6--6-----3---3-----3---3-----6---6-----6~---------------|
A|-----3--3-------3---6---4--4-----3---3-----1---1-----4---4-----6~---------------|
E|-----1--1-------1---4---4--4-----1---1-----1---1-----4---4-----4~---------------|

There ya go. Good theme song from a great comic. 

And if you want it, the *ding* at the end is a g#.

e|--16--|
Tap to rate this tab
# A B C D E F G H I J K L M N O P Q R S T U V W X Y Z