Guitaretab - guitar tabs
Song name
# A B C D E F G H I J K L M N O P Q R S T U V W X Y Z

Demi Lovato - La La Land tab

La La Land - Demi Lovato
Solo Tab

e|----------------|
B|----------------|
G|-14^(16)r14-----|
D|------------14/-|
A|----------------|
E|----------------|

e|--------------------------------------------------------------------------|
B|-19-17h19p17--------------------------------------------------------------|
G|-------------19-18h19p18-16-14h16p14--------------------------------------|
D|-------------------------------------16-14h16p14--------------------------|
A|-------------------------------------------------16-14h16p14--------------|
E|-------------------------------------------------------------17-14h17p14--|
[ Tab from: http://www.guitaretab.com/d/demi-lovato/176893.html ]
e|--------------------------------------------------------------------------|
B|------------------------19-17------------------------17--17---------------|
G|------------------------------19-18h19p18-16-14-16-16^-16^-16^-14---------|
D|--------------------14--------------------------------------------16------|
A|--------------------------------------------------------------------------|
E|-17^(19)r17^(19)r17-------------------------------------------------------|

e|--------------------------------------------------17-15-14-----15-13------|
B|---------------------------------------17^(19)r17---------15--------15-14-|
G|-8^-10^--12^--13^--17^---14^(16)r14-------------------------14------------|
D|------------------------------------14------------------------------------|
A|-7---9---11---12---16-----------------------------------------------------|
E|--------------------------------------------------------------------------|

e|--------------|
B|--------------|
G|-16-14-16-14/-|
D|--------------|
A|--------------|
E|--------------|

Symbols:
^: bend
/: slide
14h16: hammer on
16p14: pull off
17^(19): bend to note in parentheses
17^(19)r17: bend to note in parentheses and release back to first note
Related for La La Land tab
La La Land chords by Demi Lovato