Song name
# A B C D E F G H I J K L M N O P Q R S T U V W X Y Z

Demi Lovato - Party tab

Title: Party 
Artist: Demi Lovato
Album: Donīt Forget
Year: 2008, Hollywood Records
Tabbed by: MetallAndy

I tabbed out TWO guitars. The upper section of the tab is guitar nr.1, and the 
second section of the tab is the 2nd guitar. I didnīt tab the solo, but you can 
improvise with the blues scale in E.

Tablature explanation:
x - muffle
b - bend 
pb - pre-bend 
/\ - slide into or out of (from/to)
~ - vibrato 

__________________________________________________________________________________________

Tab for Guitar 1:

Intro/verse (Start: 00:00)
e|--------------------------------------------------------------------------------------|
B|----------------------------------------------------------------15---15---------------|
G|----------------------------------------------------------------14b-14pb---12---------|
D|--------------------------------------------------------------------------------14~---|
A|----------7-5-----5-----5-------------------7-5-----5---------------------------------|
E|--0--5/7-------7-----7-------7-5-3---0-5/7-------7-----7------------------------------|

(Start: 00:08)
e|-----------------------------------------------------------------------|
B|-------------------------------------------------------------5-5-------|
G|-----------------------------------------------------7-7-----6-6-------|
D|-----------------------------------------------------7-7-----7-7-------|  X3
A|----------7-5-----5-----5------------------7-5-------5-5-----7-7-------|
E|--0--5/7-------7-----7------7-5-3---0-5/7-------7----------------------|

(Start: 00:43) "You gotta dance till you ache...."
e|----------------1/12~-----------------------------|
B|--------------------------------------------------|
G|---5~---7~----------------------------------------|
D---------------------------------------------------|
A|--------------------------------------------------|
E|--------------------------------------------------|

Chorus (Start: 00:58) "It wonīt be long....."
e|--------------------------------------------------------|
B|--------------------------3-3-3-3------5-5----7-7-------|
G|--9-9-9-9-----7-7-7-7-----4-4-4-4------6-6----8-8-------|
D|--9-9-9-9-----7-7-7-7-----5-5-5-5------7-7----9-9-------|    X2
A|--7-7-7-7-----5-5-5-5-----5-5-5-5------7-7----9-9-------|
E|--------------------------------------------------------|

Verse (Start: 01:12)
e|--------------------------------------------------------------------------------------|
B|----------------------------------------------------------------15---15---------------|
G|----------------------------------------------------------------14b-14pb---12---------|
D|--------------------------------------------------------------------------------14~---|
A|----------7-5-----5-----5-------------------7-5-----5---------------------------------|
E|--0--5/7-------7-----7-------7-5-3---0-5/7-------7-----7------------------------------|

(Start: 01:19) " I know your type and all the hype is going straight to your head..."
e|-----------------------------------------------------------------------------------|
B|-----------------------------------------------------15--15------------------------|
G|-----------------------------------------------------14b-14------------------------|
D|--------------------------------------------------------------12-14p12-------------|
A|----------7-5-----5-----5------------------7-5-----------------------------14-14---|
E|--0--5/7-------7-----7-----7-5-3---0-5/7---------7---------------------------------|

(Start: 01:26) "And everybody's stopping what their doing..." 
e|---------------------------------------------------------------------------|
B|-------------------------------------------------------------5-5-----------|
G|-----------------------------------------------------7-7-----6-6-----------|
D|-----------------------------------------------------7-7-----7-7-----------|
A|----------7-5-----5-----5-----------------7-5--------5-5-----7-7-----------|
E|--0--5/7-------7-----7-----7-5-3---0-5/7-------7---------------------------|

(Start: 01:33) "You gotta learn how to move to the groove..." 
e|-----------------------------------------------------------------------------------|
B|------------------------------------------------------------15---15----------------|
G|------------------------------------------------------------14b-14pb---12----------|
D|----------------------------------------------------------------------------14~----|
A|----------7-5-----5-----5------------------7-5-----5-------------------------------|
E|--0--5/7-------7-----7------7-5-3---0-5/7-------7----7-----------------------------|

(Start: 01:40) "Put your hands in the air ..."
e|-----------------------------------------------------------------------|
B|-------------------------------------------------------------5-5-------|
G|-----------------------------------------------------7-7-----6-6-------|
D|-----------------------------------------------------7-7-----7-7-------|
A|----------7-5-----5-----5-----------------7-5--------5-5-----7-7-------|
E|--0--5/7-------7-----7-----7-5-3---0-5/7--------7----------------------|

(Start: 01:47) "You're all dolled up with nowhere to go...."
e|----------------1/12~-----------------------------|
B|--------------------------------------------------|
G|---5~---7~----------------------------------------|
D---------------------------------------------------|
A|--------------------------------------------------|
E|--------------------------------------------------|

Chorus (Start: 02:01) "It wonīt be long....."
E|----------------------------------------------------|
B|--------------------------3-3-3-3----5-5----7-7-----|
G|--9-9-9-9-----7-7-7-7-----4-4-4-4----6-6----8-8-----|
D|--9-9-9-9-----7-7-7-7-----5-5-5-5----7-7----9-9-----|  X4
A|--7-7-7-7-----5-5-5-5-----5-5-5-5----7-7----9-9-----|
E|----------------------------------------------------|

Solo (Start: 02:30)
E|--------------------------------------------------|
B|--12~--12~--12~--12~--12~--12~--12~--12~----------|
G|--------------------------------------------------|
D|--------------------------------------------------|
A|--------------------------------------------------|
E|--------------------------------------------------|
All I got of the solo at the moment XD

Bridge (Start: 02:44)
E|-------------------------------------------|
B|------5----x-x------5----x-x-------5-------|
G|--7---6----x-x--7---6----x-x--7----6-------|
D|--7---7----x-x--7---7----x-x--7----7-------|
A|--5---7----x-x--5---7----x-x--5----5-------|
E|-------------------------------------------|

(Start: 03:05) "Get your party on..."
E|-----------------------------------|
B|--3-3-3-3-----5-5-----7-7----------|
G|--4-4-4-4-----6-6-----8-8----------|
D|--5-5-5-5-----7-7-----9-9----------|
A|--5-5-5-5-----7-7-----9-9----------|
E|-----------------------------------|

Chorus (Start: 03:09) "Hold on tight....."
E|------------------------------------------------------|
B|------------------------3-3-3-3-----5-5----7-7--------|
G|--9-9-9-9----7-7-7-7----4-4-4-4-----6-6----8-8--------|
D|--9-9-9-9----7-7-7-7----5-5-5-5-----7-7----9-9--------|  X3
A|--7-7-7-7----5-5-5-5----5-5-5-5-----7-7----9-9--------|
E|------------------------------------------------------|

Ending (Start 03:30) "Get your, get your party on...."
e|------------------------------------------------------------------------------------|
B|--------------------------------------------------------------15---15---------------|
G|--------------------------------------------------------------14b-14pb---12---------|
D|------------------------------------------------------------------------------14~---|
A|----------7-5-----5-----5------------------7-5-----5--------------------------------|
E|--0--5/7-------7-----7------7-5-3---0-5/7-------7-----7-----------------------------|

(Start 03:38)                                                                     
E|------------------------------------------------------------------------Letīs-do-it-again---|
B|--------------------------------------------------------------5-5---------------------------|
G|------------------------------------------------------7-7-----6-6------9-------9/3----------|
D|------------------------------------------------------7-7-----7-7------9-------9/3----------|
A|----------7-5----5-----5------------------7-5---------5-5-----7-7------7-------7/1----------|
E|--0--5/7------7-----7-----7-5-3---0-5/7--------7--------------------------------------------|


________________________________________________________________________________________________



Tab for the 2nd guitar:

Intro/verse - Guitar 2 - (Start: 00:00)
e|------------------------------------------------------------------------------------|
B|--------------------------------------------------------------15---15---------------|
G|--------------------------------------------------------------14b-14pb---12---------|
D|------------------------------------------------------------------------------14~---|
A|----------7-5-----5-----5------------------7-5-----5--------------------------------|
E|--0--5/7-------7-----7------7-5-3---0-5/7-------7-----7-----------------------------|

(Start: 00:08)
e|----------------------------------------------------------------|
B|----------------------------------------------------------------|
G|---------------------------------------------------7-7----------|
D|---------------------------------------------------7-7----7-7---|  X3
A|----------7-5---5-----5------------------7-5-------5-5----7-7---|
E|--0--5/7------7----7------7-5-3---0-5/7--------7----------5-5---|

(Start: 00:43) "You gotta dance till you ache..."
e|----------------------------------------------------------|
B|----------------------------------------------------------|
G|--5-5-5-5-5-5-5-5---7-7-7-7-7-7-7-7-----9-let-ring--------|
D|--5-5-5-5-5-5-5-5---7-7-7-7-7-7-7-7-----9-let-ring--------|
A|--3-3-3-3 3-3-3-3---5-5-5-5-5-5-5-5-----7-let-ring--------|
E|----------------------------------------------------------|

Chorus (Start: 00:58) "It wonīt be long..."
e|--------------------------------------------------------|
B|--------------------------------------------------------|
G|--9-9-9-9---7-7-7-7-------------------------------------|
D|--9-9-9-9---7-7-7-7----5-5-5-5----7-7---9-9-------------| X2
A|--7-7-7-7---5-5-5-5----5-5-5-5----7-7---9-9-------------|
E|-----------------------3-3-3-3----5-5---7-7-------------|

Verse (Start: 01:12)
e|------------------------------------------------------------------------------------|
B|--------------------------------------------------------------15---15---------------|
G|--------------------------------------------------------------14b-14pb---12---------|
D|------------------------------------------------------------------------------14~---|  X2
A|----------7-5-----5-----5------------------7-5-----5--------------------------------|
E|--0--5/7-------7-----7------7-5-3---0-5/7-------7-----7-----------------------------|

(Start: 01:26) "Everybody's stopping what their doing..."
e|----------------------------------------------------------------|
B|----------------------------------------------------------------|
G|---------------------------------------------------7-7----------|
D|---------------------------------------------------7-7----7-7---|
A|----------7-5---5-----5------------------7-5-------5-5----7-7---|
E|--0--5/7------7----7------7-5-3---0-5/7--------7----------5-5---|

(Start: 01:33) "You gotta learn how to move to the groove..." 
e|------------------------------------------------------------------------------------|
B|--------------------------------------------------------------15---15---------------|
G|--------------------------------------------------------------14b-14pb---12---------|
D|------------------------------------------------------------------------------14~---|
A|----------7-5-----5-----5------------------7-5-----5--------------------------------|
E|--0--5/7-------7-----7------7-5-3---0-5/7-------7-----7-----------------------------|

(Start: 01:40) "Put your hands in the air ..."
e|----------------------------------------------------------------|
B|----------------------------------------------------------------|
G|---------------------------------------------------7-7----------|
D|---------------------------------------------------7-7----7-7---|
A|----------7-5---5-----5------------------7-5-------5-5----7-7---|
E|--0--5/7------7----7------7-5-3---0-5/7--------7----------5-5---|

(Start: 01:47) "All dolled up with nowhere to go...."
e|----------------------------------------------------------|
B|----------------------------------------------------------|
G|--5-5-5-5-5-5-5-5---7-7-7-7-7-7-7-7-----9-let-ring--------|
D|--5-5-5-5-5-5-5-5---7-7-7-7-7-7-7-7-----9-let-ring--------|
A|--3-3-3-3 3-3-3-3---5-5-5-5-5-5-5-5-----7-let-ring--------|
E|----------------------------------------------------------|

Chorus (Start: 02:01) "It wonīt be long....."
e|--------------------------------------------------------|
B|--------------------------------------------------------|
G|--9-9-9-9---7-7-7-7-------------------------------------|
D|--9-9-9-9---7-7-7-7----5-5-5-5----7-7---9-9-------------| X4
A|--7-7-7-7---5-5-5-5----5-5-5-5----7-7---9-9-------------|
E|-----------------------3-3-3-3----5-5---7-7-------------|

Solo backing (Start 02:30)
e|------------------------------------------------------------------------------------|
B|--------------------------------------------------------------15---15---------------|
G|--------------------------------------------------------------14b-14pb---12---------|
D|------------------------------------------------------------------------------14~---|  X2
A|----------7-5-----5-----5------------------7-5-----5--------------------------------|
E|--0--5/7-------7-----7------7-5-3---0-5/7-------7-----7-----------------------------|

(Start: 02:37) "Dallas Texas...."
e|----------------------------------------------------------------|
B|----------------------------------------------------------------|
G|---------------------------------------------------7-7----------|
D|---------------------------------------------------7-7----7-7---|
A|----------7-5---5-----5------------------7-5-------5-5----7-7---|
E|--0--5/7------7----7------7-5-3---0-5/7--------7----------5-5---|

Bridge (02:44)
E|----------------------------------------|
B|----------x-x------------x-x------------|
G|--7-------x-x---7--------x-x---7--------|
D|--7---7---x-x---7---7----x-x---7---7----|
A|--5---7---x-x---5---7----x-x---5---7----|
E|------5-------------5--------------5----|

(Start: 03:05) "Get your party on..."
E|--------------------------------|
B|--------------------------------|
G|--------------------------------|
D|--5-5-5-5-------7-7------9-9----|
A|--5-5-5-5-------7-7------9-9----|
E|--3-3-3-3-------5-5------7-7----|

Chorus (Start: 03:09) "Hold on tight....."
e|--------------------------------------------------------|
B|--------------------------------------------------------|
G|--9-9-9-9---7-7-7-7-------------------------------------|
D|--9-9-9-9---7-7-7-7----5-5-5-5----7-7---9-9-------------| X3
A|--7-7-7-7---5-5-5-5----5-5-5-5----7-7---9-9-------------|
E|-----------------------3-3-3-3----5-5---7-7-------------|

Ending (Start 03:30) "Get your, get your party on...."
e|------------------------------------------------------------------------------------|
B|--------------------------------------------------------------15---15---------------|
G|--------------------------------------------------------------14b-14pb---12---------|
D|------------------------------------------------------------------------------14~---|
A|----------7-5-----5-----5------------------7-5-----5--------------------------------|
E|--0--5/7-------7-----7------7-5-3---0-5/7-------7-----7-----------------------------|

(Start 03:38)                                                                     
E|----------------------------------------------------------------------Letīs-do-it-again--|
B|-----------------------------------------------------------------------------------------|
G|------------------------------------------------------7-7------------9----0--------------|
D|------------------------------------------------------7-7----7-7-----9----2--------------| 
A|----------7-5-----5-----5-----------------7-5---------5-5----7-7-----7----2--------------|
E|--0--5/7-------7-----7-----7-5-3---0-5/7-------7-------------5-5----------0--------------| 


Tap to rate this tab
 
# A B C D E F G H I J K L M N O P Q R S T U V W X Y Z