Song name
# A B C D E F G H I J K L M N O P Q R S T U V W X Y Z

Demi Lovato - Shadow tab

My first tab!
A mixture of a few I found for this song, but much better than the two.
Sounds just like the song!
Just listen to it for the strum pattern, or be creative, and play it your own way.
A very cute song.




Intro
E|---------------------|
B|---------------------|
G|--9--------5----4----|
D|--9--------5----4----|
A|--0--------0----0----|
E|--9--------5----4----|

E|----------------------------------------|
B|----------------------------------------|
G|--9--------5----4----2------------------|
D|--9--------5----4----2------------------|
A|--0--------0----0----0------------------|
E|--9--------5----4----2------------------|


1st Verse
E|--------------------------------------|
B|--------------------------------------|
G|--9--------5--------4--------2--------|
D|--9--------5--------4--------2--------|
A|--0--------0--------0--------0--------|
E|--9--------5--------4--------2--------|

E|--------------------------------------|
B|--------------------------------------|
G|--9--------7--------4--------2--------|
D|--9--------7--------4--------2--------|
A|--0--------0--------0--------0--------|
E|--9--------7--------4--------2--------|


Pre-Chorus
E|--------------------------------------------------------|
B|--------------------------------------------------------|
G|--4--------2--------4--------2--------4--------2--------|
D|--4--------2--------4--------2--------4--------2--------|
A|--0--------0--------0--------0--------0--------0--------|
E|--4--------2--------4--------2--------4--------2--------|


E|--------------------------------------|
B|--------------------------------------|
G|--4--------2--------5~~~~----2--------|
D|--4--------2--------5~~~~----2--------|
A|--0--------0--------0~~~~----0--------|
E|--4--------2--------5~~~~----2--------|


Chorus
E|--0--------4------------------|
B|--0--------5------------------|
G|--1--------6--------4---------|
D|--2--------6--------4---------|
A|--2--------4--------0---------|
E|--0-----------------4---------|

E|---------------|
B|---------------|
G|--5--4--5--4-2-|
D|--5--4--5--4-2-|
A|--0--0--0--0-0-|
E|--5--4--5--4-2-|

E|--0--------4------------------|
B|--0--------5------------------|
G|--1--------6--------4---------|
D|--2--------6--------4---------|
A|--2--------4--------0---------|
E|--0-----------------4---------|

E|------------------------------------------|
B|------------------------------------------|
G|--5----4----5----4----2----4----5----7----|
D|--5----4----5----4----2----4----5----7----|
A|--0----0----0----0----0----0----0----0----|
E|--5----4----5----4----2----4----5----7----|

E|----------------------------------------|
B|----------------------------------------|
G|--9--------5----4----2------------------|
D|--9--------5----4----2------------------|
A|--0--------0----0----0------------------|
E|--9--------5----4----2------------------|


2nd Verse
E|--------------------------------------|
B|--------------------------------------|
G|--9--------5--------4--------2--------|
D|--9--------5--------4--------2--------|
A|--0--------0--------0--------0--------|
E|--9--------5--------4--------2--------|


E|--------------------------------------|
B|--------------------------------------|
G|--9--------7--------4--------2--------|
D|--9--------7--------4--------2--------|
A|--0--------0--------0--------0--------|
E|--9--------7--------4--------2--------|


Pre-Chorus
E|--------------------------------------------------------|
B|--------------------------------------------------------|
G|--4--------2--------4--------2--------4--------2--------|
D|--4--------2--------4--------2--------4--------2--------|
A|--0--------0--------0--------0--------0--------0--------|
E|--4--------2--------4--------2--------4--------2--------|


E|--------------------------------------|
B|--------------------------------------|
G|--4--------2--------5~~~~----2--------|
D|--4--------2--------5~~~~----2--------|
A|--0--------0--------0~~~~----0--------|
E|--4--------2--------5~~~~----2--------|


Chorus
E|--0--------4------------------|
B|--0--------5------------------|
G|--1--------6--------4---------|
D|--2--------6--------4---------|
A|--2--------4--------0---------|
E|--0-----------------4---------|

E|---------------|
B|---------------|
G|--5--4--5--4-2-|
D|--5--4--5--4-2-|
A|--0--0--0--0-0-|
E|--5--4--5--4-2-|

E|--0--------4------------------|
B|--0--------5------------------|
G|--1--------6--------4---------|
D|--2--------6--------4---------|
A|--2--------4--------0---------|
E|--0-----------------4---------|

E|----------------------------------|
B|----------------------------------|
G|--5--4--5--4--2----4----5----7----|
D|--5--4--5--4--2----4----5----7----|
A|--0--0--0--0--0----0----0----0----|
E|--5--4--5--4--2----4----5----7----|

Outro
E|---------------------|
B|---------------------|
G|--9--------5----4----|
D|--9--------5----4----|
A|--0--------0----0----|
E|--9--------5----4----|

E|-----------------------------------------|
B|-----------------------------------------|
G|--9--------5----4----2----4----5----7----|
D|--9--------5----4----2----4----5----7----|
A|--0--------0----0----0----0----0----0----|
E|--9--------5----4----2----4----5----7----|


Lyrics

1st Verse
I glanced upon the ground today
I noticed something
It followed me along the way
A figure of grey
Impersonating every move I make

Pre-Chorus
For now
We'll call it my shadow
And instead
Will you replace it
SO you'll be with me everywhere I go

Chorus
Sentences of yours
Running throughout my head
Searching for a chance to catch my breath
A never ending dream
You'll become a part of me
In day or night
Dark or light you'll be
Taking over that thing called my shadow

2nd Verse
And what happens on the days when
The clouds appear and fade away my shade
That's our que babe
We'll run away to a place where, the sun always shines

Pre-Chorus
Not even time could erase
You're my weakness babe
But you give me strength
I need you
I need you like the blood in my veins

Chorus
Sentences of yours
Running throughout my head
Searching for a chance to catch my breath
A never ending dream
You'll become a part of me
In day or night
Dark or light you'll be
Taking over that thing called my shadow


Tap to rate this tab
 
# A B C D E F G H I J K L M N O P Q R S T U V W X Y Z