Song name
# A B C D E F G H I J K L M N O P Q R S T U V W X Y Z

Demi Lovato - Remember December tab

DEMI LOVATO 
REMEMBER DECEMBER
SOLO TAB
STANDAR TUNING
PLEAS VISIT my www.youtube.com/user/DemiLovatoCovers

DON'T COPY (IF YOU COPY, PLEASE GIVE ME CREDIT: YOUTUBE DEMILOVATOCOVERS

INTRO:-------   .BRIDGE:---------------------------------
e|-----------|  .---------------------------------------|
B|-----------|  .---------------------------------------|X2
G|-----------|x2.---------------------------------------|remplace last 3
D|-3--5--6---|  .---------------------------------------|with 3 on the 
A|---------4-|  .-----------------------------------4-3-|  string D
E|-----------|  .-1--4-3---1--4-3----1--4-3----1--4-----|(REPEAT 3 TIMES)

SOLO 2:  (BEFORE THE CHORUS)
e|---------------------------------|
B|----------------------------14---|
G|-10--12-13-------10--12-13-------|
D|------------11-------------------|
A|---------------------------------|
E|---------------------------------|     

REPEAT “intro” AT THE END
PLEASE DON'T COPY (IF YOU COPY , GIVE ME CREDIT (YOUTUBE DEMILOVATOCOVERS)
Tap to rate this tab
# A B C D E F G H I J K L M N O P Q R S T U V W X Y Z