Song name
# A B C D E F G H I J K L M N O P Q R S T U V W X Y Z

Demi Lovato - So Far So Great tab

hi, im 100% sure, this tab is okay
PLEASE VISIT MY YOUTUBE, COMENTT AND RATE
youtube.com/user/DemiLovatoCovers

e-----------------------------|
B-----------------------------|
G----------------0------------|
D--------0--2--4---4--2--4--0-|x2
A---2--4----------------------|
E-----------------------------|

e--------------------------------------|
B--------------------------------------|
G------------------------0-------0-0---|
D--------0--2--4---2--4----2--4------4-|
A---2--4-------------------------------|
E--------------------------------------|
Tap to rate this tab
# A B C D E F G H I J K L M N O P Q R S T U V W X Y Z