Song name
# A B C D E F G H I J K L M N O P Q R S T U V W X Y Z

Demi Lovato - Got Dynamite tab

Demi Lovato
Here We Go Again
Got Dynamite

(/) Slide Up  (\) Slide Down  (h) Hammer On  (p) Pull Off  (b) Bend (r) Release (v) Vibrato

E|------------------------------------------------------------------|
B|------------------------------------------------------------------| x5
G|------------------------------------------------------------------|
D|----------------2-----------------------------2----2--0-----------|
A|---------------------2--0--------------------------------2--0-----|
E|--0----0--3--0-------------3----0----0--3--0-------------------3--|

E|--------------------------------------------------|
B|--------------------------------------------------|
G|--------------------------------------------------|
D|--5--5--5--5--4--4--4--4--7--7--7--6--6--6--6--6--|
A|--3--3--3--3--2--2--2--2--5--5--5--4--4--4--4--4--|
E|--------------------------------------------------|

E|-----------------------------------------|
B|-----------------------------------------|
G|-----------------------------------------|
D|--5--5--5--5--4--4--4--4--7--7--7--7--7--|
A|--3--3--3--3--2--2--2--2--5--5--5--5--5--|
E|-----------------------------------------|

E|---------------------------------------------------|
B|---------------------------------------------------| x2
G|---------------------------------------------------|
D|-9-9-9-9-9-9-9-------------5-5-5-5-5-5-5-----------|
A|-7-7-7-7-7-7-7-5--5--5-5---3-3-3-3-3-3-3-4--4--4-4-|
E|---------------3--3--3-3-----------------2--2--2-2-|

E|---------------------------------------------------------------------|
B|---------------------------------------------------------------------|
G|---------------------------------------------------------------------|
D|-9-9-9-9-9-9-9-12-12-12-12-12-12-12-12-5-5-5-5-5-5-5-----------------|
A|-7-7-7-7-7-7-7-10-10-10-10-10-10-10-10-3-3-3-3-3-3-3-4-4-4-4-4-4-4-4-|
E|-----------------------------------------------------2-2-2-2-2-2-2-2-|

E|----------------------------------------------|
B|----------------------------------------------|
G|----------------------------------------------|
D|-9-9-9-9-9-9-9-------------5-5-5-5-5-5-5------|
A|-7-7-7-7-7-7-7-5--5--5-5---3-3-3-3-3-3-3-4--4-|
E|---------------3--3--3-3-----------------2--2-|

E|------------------------------------------------------------------|
B|------------------------------------------------------------------| x4
G|------------------------------------------------------------------|
D|----------------2-----------------------------2----2--0-----------|
A|---------------------2--0--------------------------------2--0-----|
E|--0----0--3--0-------------3----0----0--3--0-------------------3--|

E|--------------------------------------------------|
B|--------------------------------------------------|
G|--------------------------------------------------|
D|--5--5--5--5--4--4--4--4--7--7--7--6--6--6--6--6--|
A|--3--3--3--3--2--2--2--2--5--5--5--4--4--4--4--4--|
E|--------------------------------------------------|

E|-----------------------------------------|
B|-----------------------------------------|
G|-----------------------------------------|
D|--5--5--5--5--4--4--4--4--7--7--7--7--7--|
A|--3--3--3--3--2--2--2--2--5--5--5--5--5--|
E|-----------------------------------------|

E|---------------------------------------------------|
B|---------------------------------------------------| x2
G|---------------------------------------------------|
D|-9-9-9-9-9-9-9-------------5-5-5-5-5-5-5-----------|
A|-7-7-7-7-7-7-7-5--5--5-5---3-3-3-3-3-3-3-4--4--4-4-|
E|---------------3--3--3-3-----------------2--2--2-2-|

E|---------------------------------------------------------------------|
B|---------------------------------------------------------------------|
G|---------------------------------------------------------------------|
D|-9-9-9-9-9-9-9-12-12-12-12-12-12-12-12-5-5-5-5-5-5-5-----------------|
A|-7-7-7-7-7-7-7-10-10-10-10-10-10-10-10-3-3-3-3-3-3-3-4-4-4-4-4-4-4-4-|
E|-----------------------------------------------------2-2-2-2-2-2-2-2-|

E|----------------------------------------------|
B|----------------------------------------------|
G|----------------------------------------------|
D|-9-9-9-9-9-9-9-------------5-5-5-5-5-5-5------|
A|-7-7-7-7-7-7-7-5--5--5-5---3-3-3-3-3-3-3-4--4-|
E|---------------3--3--3-3-----------------2--2-|

I play this part during the break.  This part is not originally played.

E|------------------------------------------------------------------------|
B|------------------------------------------------------------------------|
G|-9---11---12-----9---12---11h12p11-----9---11---12-----9---12---11---12-|
D|------------------------------------------------------------------------|
A|------------------------------------------------------------------------|
E|------------------------------------------------------------------------|

E|------------------------------------------|
B|--12------------------12------15----------|
G|--------------------------------------12--|
D|------------------------------------------|
A|------------------------------------------|
E|------------------------------------------|

E|---------------------------------------------------|
B|---------------------------------------------------| x3
G|---------------------------------------------------|
D|-9-9-9-9-9-9-9-------------5-5-5-5-5-5-5-----------|
A|-7-7-7-7-7-7-7-5--5--5-5---3-3-3-3-3-3-3-4--4--4-4-|
E|---------------3--3--3-3-----------------2--2--2-2-|

E|---------------------------------------------------------------------|
B|---------------------------------------------------------------------|
G|---------------------------------------------------------------------|
D|-9-9-9-9-9-9-9-12-12-12-12-12-12-12-12-5-5-5-5-5-5-5-----------------|
A|-7-7-7-7-7-7-7-10-10-10-10-10-10-10-10-3-3-3-3-3-3-3-4-4-4-4-4-4-4-4-|
E|-----------------------------------------------------2-2-2-2-2-2-2-2-|

E|----------------------------------------------|
B|----------------------------------------------|
G|----------------------------------------------|
D|-9-9-9-9-9-9-9-------------5-5-5-5-5-5-5------|
A|-7-7-7-7-7-7-7-5--5--5-5---3-3-3-3-3-3-3-4--4-|
E|---------------3--3--3-3-----------------2--2-|

E|------------------------------------------------------------------|
B|------------------------------------------------------------------|
G|------------------------------------------------------------------|
D|----------------2-----------------------------2----2--0-----------|
A|---------------------2--0--------------------------------2--0-----|
E|--0----0--3--0-------------3----0----0--3--0-------------------3--|

E|----------------------------------------------------------------|
B|----------------------------------------------------------------|
G|----------------------------------------------------------------|
D|----------------2-----------------------------2---------x-x-x-x-|
A|---------------------2--0--------------------------2----x-x-x-x-|
E|--0----0--3--0-------------3----0----0--3--0------------x-x-x-x-|

Tab created by lukemcnier.
Tap to rate this tab
 
# A B C D E F G H I J K L M N O P Q R S T U V W X Y Z