Guitaretab - guitar tabs
Song name
# A B C D E F G H I J K L M N O P Q R S T U V W X Y Z

Demi Lovato - Catch Me Acoustic tab

----------------------------------------------------------------------------
			     Catch Me Acoustic - Demi Lovato
----------------------------------------------------------------------------
Tabbed by: emma_oneill
Email: emz_oneill@hotmail.co.uk

Tuning: standard

♦Capo on 2nd

♦Pluck all notes


		Intro
e|-----------------------------------------------------------------|
B|-----------------------------------------------------------------|
G|-------7------7-------7------7-----------------------------------|
D|---5------5------5-------5-----------7-------7------7------7-----|      x2
A|-----------------------------------5-------5-------5------5------|
E|-----------------------------------------------------------------|

		Verse 1
e|-----------------------------------------------------------------|
B|-----------------------------------------------------------------|
G|-------7------7-------7------7-----------------------------------|
D|---5------5------5-------5-----------7-------7------7------7-----|
A|-----------------------------------5-------5-------5------5------|
E|-----------------------------------------------------------------|

e|-----------------------------------------------------------------|
B|-----------------------------------------------------------------|
G|-------7------7-------7------7-----------------------------------|
D|---5------5------5-------5-----------7-------7------7------7-----|
A|-----------------------------------5-------5-------5------5------|
E|-----------------------------------------------------------------|

e|-----------------------------------------------------------------|
B|-----------------------------------------------------------------|
G|-----------------------------------------------------------------|
D|--------4------4------4--------4---------------------------------|
A|----2-----2-------2-------2-----------4--------4------4------4---|
E|-----------------------------------2--------2--------2-----2-----|

e|-----------------------------------------------------------------|
B|-----------------------------------------------------------------|
G|-----------------------------------------------------------------|
D|-----------------------------------------------------------------|
A|--------5------5------5------5---------7------7------7-----------|
E|----3------3------3------3---------5------5------5------5--------|

		Chorus
e|-----------------------------------------------------------------|
B|-----------------------------------------------------------------|
G|----7-------7-----9--------9-------------------------------------|
D|--5------5-----7------7--------------7------7--------------------|
A|-----------------------------------5-------5----------7-----7----|
E|-----------------------------------------------------5-----5-----|

e|-----------------------------------------------------------------|
B|-----------------------------------------------------------------|
G|-----------------------------------------------------------------|
D|-----------------------------------------7-----7-----7------7----|
A|-------5------5----------7-----7-------5-----5-----5-----5-------|
E|----3-----3---------5------5-------------------------------------|

e|-----------------------------------------------------------------|
B|-----------------------------------------------------------------|
G|----7-------7-----9--------9-------------------------------------|
D|--5------5-----7------7--------------7------7--------------------|
A|-----------------------------------5-------5----------7-----7----|
E|-----------------------------------------------------5-----5-----|

e|-----------------------------------------------------------------|
B|-----------------------------------------------------------------|
G|-----------------------------------------------------------------|
D|------------------------------------------7-----7-----7-----7----|
A|-------5------5----------7-----7-------5-----5-----5-----5-------|
E|----3-----3---------5------5-------------------------------------|

		Verse 2
e|-----------------------------------------------------------------|
B|-----------------------------------------------------------------|
G|-------7------7-------7------7-----------------------------------|
D|---5------5------5-------5-----------7-------7------7------7-----|
A|-----------------------------------5-------5-------5------5------|
E|-----------------------------------------------------------------|

e|-----------------------------------------------------------------|
B|-----------------------------------------------------------------|
G|-------7------7-------7------7-----------------------------------|
D|---5------5------5-------5-----------7-------7------7------7-----|
A|-----------------------------------5-------5-------5------5------|
E|-----------------------------------------------------------------|

e|-----------------------------------------------------------------|
B|-----------------------------------------------------------------|
G|-----------------------------------------------------------------|
D|------4----4-----4-----4-----------------------------------------|
A|---2----2----2-----2-----------4-----4----4----4-----------------|
E|-----------------------------------2-----2-----2---2-------------|

e|-----------------------------------------------------------------|
B|-----------------------------------------------------------------|
G|-----------------------------------------------------------------|
D|-----------------------------------------------------------------|
A|--------5------5------5------5---------7------7------7-----------|
E|----3------3------3------3---------5------5------5------5--------|
[ Tab from: http://www.guitaretab.com/d/demi-lovato/196044.html ]
e|-----------------------------------------------------------------|
B|-----------------------------------------------------------------|
G|-------7------7-------7------7-----------------------------------|
D|---5------5------5-------5-----------7-------7------7------7-----|
A|-----------------------------------5-------5-------5------5------|
E|-----------------------------------------------------------------|

e|-----------------------------------------------------------------|
B|-----------------------------------------------------------------|
G|-------7------7-------7------7-----------------------------------|
D|---5------5------5-------5-----------7-------7------7------7-----|
A|-----------------------------------5-------5-------5------5------|
E|-----------------------------------------------------------------|

e|-----------------------------------------------------------------|
B|-----------------------------------------------------------------|
G|-----------------------------------------------------------------|
D|--------4------4------4--------4---------------------------------|
A|----2-----2-------2-------2-----------4--------4------4--------4-|
E|-----------------------------------2--------2--------2-------2---|

e|-----------------------------------------------------------------|
B|-----------------------------------------------------------------|
G|-----------------------------------------------------------------|
D|-----------------------------------------------------------------|
A|--------5------5------5------5---------7------7------7-----------|
E|----3------3------3------3---------5------5------5------5--------|

		Chorus
e|-----------------------------------------------------------------|
B|-----------------------------------------------------------------|
G|----7-------7-----9--------9-------------------------------------|
D|--5------5-----7------7--------------7------7--------------------|
A|-----------------------------------5-------5----------7-----7----|
E|-----------------------------------------------------5-----5-----|

e|-----------------------------------------------------------------|
B|-----------------------------------------------------------------|
G|-----------------------------------------------------------------|
D|-----------------------------------------7-----7-----7------7----|
A|-------5------5----------7-----7-------5-----5-----5-----5-------|
E|----3-----3---------5------5-------------------------------------|

e|-----------------------------------------------------------------|
B|-----------------------------------------------------------------|
G|----7-------7-----9--------9-------------------------------------|
D|--5------5-----7------7--------------7------7--------------------|
A|-----------------------------------5-------5----------7-----7----|
E|-----------------------------------------------------5-----5-----|

e|-----------------------------------------------------------------|
B|-----------------------------------------------------------------|
G|-----------------------------------------------------------------|
D|------------------------------------------7-----7-----7------7---|
A|-------5------5----------7-----7-------5-----5-----5-----5-------|
E|----3-----3---------5------5-------------------------------------|

		Bridge

e|-----------------------------------------------------------------|
B|-----------------------------------------------------------------|
G|-----------------------------------------------------------------|
D|---------4------4------4------4----------------------------------|
A|-----2------2------2------2-----------4------4------4------4-----|
E|-------------------------------------2------2------2------2------|

e|-----------------------------------------------------------------|
B|-----------------------------------------------------------------|
G|-----------------------------------------------------------------|
D|-----------------------------------------------------------------|
A|--------5------5------5------5-------5-------5------5------5-----|
E|---3-------3------3------3-------3-------3------3------3---------|

e|-----------------------------------------------------------------|
B|-----------------------------------------------------------------|
G|-----------------------------------------------------------------|
D|---------4------4------4------4----------------------------------|
A|-----2------2------2------2-----------4------4------4------4-----|
E|-------------------------------------2------2------2------2------|

e|-----------------------------------------------------------------|
B|-----------------------------------------------------------------|
G|-----------------------------------------------------------------|
D|-----------------------------------------------------------------|
A|--------5------5------5------5-----------7-----------------------|
E|---3-------3------3------3---------5-----------------------------|

		Chorus
e|-----------------------------------------------------------------|
B|-----------------------------------------------------------------|
G|---7-----9-------------------------------------------------------|
D|---5-----7--------7----------------------------7-----------------|
A|------------------5-------7-------5-------7----5-----------------|
E|--------------------------5-------3-------5----------------------|

e|-----------------------------------------------------------------|
B|-----------------------------------------------------------------|
G|---7----9--------------------------------------------------9-----|
D|---5----7--------7-------------------------------------7---------|
A|-----------------5--------7--------5-------7-------5-------------|
E|--------------------------5--------3-------5---------------------|

| /  slide up
| \  slide down
| h  hammer-on
| p  pull-off
| ~  vibrato
| +  harmonic
| x  Mute note
===============================================================================
Related for Catch Me Acoustic tab
Catch Me Acoustic chords by Demi Lovato