Guitaretab - guitar tabs
Song name
# A B C D E F G H I J K L M N O P Q R S T U V W X Y Z

Demi Lovato - Behind Enemy Lines tab

This Is my first tab.

Intro (x1)
e|---------------------------|---------------------------|
B|--------5-5---------5-5----|------5-5--------5-5-------|
G|--------5-5---------5-5----|------5-5--------5-5-------|
D|---------------------------|---------------------------|
A|----5-5---------5-5--------|---------------------------|
E|---------------------------|--5-5--------5-5-----------|
[ Tab from: http://www.guitaretab.com/d/demi-lovato/205206.html ]
Verse (3x)
e|---------------------------|---------------------------|
B|--------5-5---------5-5----|---------------------------|
G|--------5-5---------5-5----|------5-5--------5-5-------|
D|---------------------------|------5-5--------5-5-------|
A|----5-5---------5-5--------|---------------------------|
E|---------------------------|--5-5--------5-5-----------|

Chorus
                            Dm                           G
Well I've been walking, (walking) behind enemy lines 
                             C            C/B        Am
And I've been fighting, fighting from the other side 
                    Dm                          G
I've been saying, (saying) that I won't fall this time 
                         C                    C/B    Am
But now I'm walking, (walking) within enemy lines 

Interlude
e|---------------------------------|
B|--5\6-66----6h8-88---6--655------|
G|---------------------------7-55--|
D|---------------------------------|
A|---------------------------------|
E|---------------------------------|

Verse

Chorus
Related for Behind Enemy Lines tab
Behind Enemy Lines chords by Demi Lovato