Song name
# A B C D E F G H I J K L M N O P Q R S T U V W X Y Z

Demi Lovato - Remember December tab

Title: Remember December (MetallAndy Version)
Artist: Demi Lovato
Album: Here We Go Again
Year: 2009
Tabbed by: MetallAndy
Video of me playing it: http://www.youtube.com/watch?v=XYKIWYjQ1-o


| /  slide up
| \  slide down
| ~  vibrato
| x  Mute note
| b  Bend note

INTRO/VERSE GUITAR 1
E|----------------------------------------|
B|----------------------------------------|
G|-10---12-13--6----10---12-13--6---------|
D|----------------------------------------|
A|-8----10-11--4----8----10-11--4---------|
E|----------------------------------------|

VERSE GUITAR 2
e|---------------------------------------------------------------------------|
B|---------------------------------------------------------------------------|
G|---------------------------------------------------------------------------|
D|---------------------------------------6-6-6---6-6-6---6-6-6---6-6-6-------|
A|---3-3-3----3-3-3----6-6-6----6-6-6----4-4-4---4-4-4---4-4-4---4-4-4-------|
E|---1-1-1----1-1-1----4-4-4----4-4-4----------------------------------------|
     X X      X X      X X      X X      X X     X X     X X     X X

e|---------------------------------------------------------------------------|
B|---------------------------------------------------------------------------|
G|---------------------------------------------------------------------------|
D|---------------------------------------6-6-6---6-6-6---6-6-6---6-6-6-------|
A|---3-3-3----3-3-3----6-6-6----6-6-6----4-4-4---4-4-4---4-4-4---4-4-4-------|
E|---1-1-1----1-1-1----4-4-4----4-4-4----------------------------------------|
     X X      X X      X X      X X      X X     X X     X X     X X

e|---------------------------------------------------------------------------|
B|---------------------------------------------------------------------------|
G|---------------------------------------------------------------------------|
D|---------------------------------------6-6-6---6-6-6---6-6-6---6-6-6-------|
A|---3-3-3----3-3-3----6-6-6----6-6-6----4-4-4---4-4-4---4-4-4---4-4-4-------|
E|---1-1-1----1-1-1----4-4-4----4-4-4----------------------------------------|
     X X      X X      X X      X X      X X     X X     X X     X X

e|---------------------------------------------------------------------------|
B|---------------------------------------------------------------------------|
G|---------------------------------------------------------------------------|
D|---------------------------------------6-6-6---6-6-6-------6-6----6---6----|
A|---3-3-3----3-3-3----6-6-6----6-6-6----4-4-4---4-4-4-------4-4----4---4----|
E|---1-1-1----1-1-1----4-4-4----4-4-4----------------------------------------|
     X X      X X      X X      X X      X X     X X             

e|---------------------------------------------------------------------------|
B|---------------------------------------------------------------------------|
G|---------------------------------------------------------------------------|
D|---------------------------------------6-6-6---6-6-6---6-6-6---6-6-6-------|
A|---3-3-3----3-3-3----6-6-6----6-6-6----4-4-4---4-4-4---4-4-4---4-4-4-------|
E|---1-1-1----1-1-1----4-4-4----4-4-4----------------------------------------|
     X X      X X      X X      X X      X X     X X     X X     X X

e|---------------------------------------------------------------------------|
B|---------------------------------------------------------------------------|
G|---------------------------------------------------------------------------|
D|---------------------------------------6-6-6---6-6-6---6-6-6---6-6-6-------|
A|---3-3-3----3-3-3----6-6-6----6-6-6----4-4-4---4-4-4---4-4-4---4-4-4-------|
E|---1-1-1----1-1-1----4-4-4----4-4-4----------------------------------------|
     X X      X X      X X      X X      X X     X X     X X     X X

e|---------------------------------------------------------------------------|
B|---------------------------------------------------------------------------|
G|---------------------------------------------------------------------------|
D|---------------------------------------6-6-6---6-6-6---6-6-6---6-6-6-------|
A|---3-3-3----3-3-3----6-6-6----6-6-6----4-4-4---4-4-4---4-4-4---4-4-4-------|
E|---1-1-1----1-1-1----4-4-4----4-4-4----------------------------------------|
     X X      X X      X X      X X      X X     X X     X X     X X

e|---------------------------------------------------------------------------|
B|---------------------------------------------------------------------------|
G|------------------------------------------------------------------X-X-X-X--|
D|---------------------------------------6-6-6---6-6-6-6------------X-X-X-X--|
A|---3-3-3----3-3-3----6-6-6----6-6-6----4-4-4---4-4-4-4------------X-X-X-X--|
E|---1-1-1----1-1-1----4-4-4----4-4-4----------------------------------------|
     X X      X X      X X      X X      X X    

CHORUS GUITAR 1
e|---------------------------------------------------------------------------|
B|---------------------------------------------------------------------------|
G|-----8----8--------10----10----------6----6--------------------------------|
D|-----8----8-x6-----10----10-x6-------6----6--x16---------------------------|
A|-----6----6---------8-----8----------4----4--------------------------------|
E|---------------------------------------------------------------------------|

e|---------------------------------------------------------------------------|
B|---------------------------------------------------------------------------|
G|-----8----8--------10----10----------6----6--------------------------------|
D|-----8----8-x6-----10----10-x6-------6----6--x16---------------------------|
A|-----6----6---------8-----8----------4----4--------------------------------|
E|---------------------------------------------------------------------------|

e|---------------------------------------------------------------------------|
B|---------------------------------------------------------------------------|
G|-----5-------6-------3-----------------------------------------------------|
D|-----5-x8----6-x8----3-x8----3---------------------------------------------|
A|-----3-------4-------1-------3-x8------------------------------------------|
E|-----------------------------1---------------------------------------------|

e|---------------------------------------------------------------------------|
B|---------------------------------------------------------------------------|
G|-----8----8--------10----10----------6---6--------5--5---------------------|
D|-----8----8-x6-----10----10-x6-------6---6--x16---5--5---------------------|
A|-----6----6---------8-----8----------4---4--------3--3---------------------|
E|---------------------------------------------------------------------------|

CHORUS GUITAR 2
e|--------------------------------------------------------------------------|
B|--------------------------------------------------------------------------|
G|-----12---12--------13----13----------10---10-----------------------------|
D|-------------x6--------------x6---------------x16-------------------------|
A|-----10---12--------11----11----------8----8------------------------------|
E|--------------------------------------------------------------------------|

e|--------------------------------------------------------------------------|
B|--------------------------------------------------------------------------|
G|-----12---12--------13----13----------10---10-----------------------------|
D|-------------x6--------------x6---------------x16-------------------------|
A|-----10---12--------11----11----------8----8------------------------------|
E|--------------------------------------------------------------------------|

e|--------------------------------------------------------------------------|
B|--------------------------------------------------------------------------|
G|-----8---8--------10----10--------12---12--------13---13------------------|
D|-----------x8--------------x8-------------x8------------x8----------------|
A|-----6---6--------8-----8---------10---10--------11---11------------------|
E|--------------------------------------------------------------------------|

e|--------------------------------------------------------------------------|
B|--------------------------------------------------------------------------|
G|-----12---12--------13----13----------10---10--------9--9-----------------|
D|-------------x6--------------x6---------------x16-------------------------|
A|-----10---12--------11----11----------8----8---------7--7-----------------|
E|--------------------------------------------------------------------------|


VERSE 2 GUITAR 1
E|----------------------------------------|
B|----------------------------------------|
G|-10---12-13--6----10---12-13--6---------|
D|----------------------------------------|
A|-8----10-11--4----8----10-11--4---------|
E|----------------------------------------|


VERSE 2 GUITAR 2
e|---------------------------------------------------------------------------|
B|---------------------------------------------------------------------------|
G|---------------------------------------------------------------------------|
D|---------------------------------------6-6-6---6-6-6---6-6-6---6-6-6-------|
A|---3-3-3----3-3-3----6-6-6----6-6-6----4-4-4---4-4-4---4-4-4---4-4-4-------|
E|---1-1-1----1-1-1----4-4-4----4-4-4----------------------------------------|
     X X      X X      X X      X X      X X     X X     X X     X X

e|---------------------------------------------------------------------------|
B|---------------------------------------------------------------------------|
G|---------------------------------------------------------------------------|
D|---------------------------------------6-6-6---6-6-6---6-6-6---6-6-6-------|
A|---3-3-3----3-3-3----6-6-6----6-6-6----4-4-4---4-4-4---4-4-4---4-4-4-------|
E|---1-1-1----1-1-1----4-4-4----4-4-4----------------------------------------|
     X X      X X      X X      X X      X X     X X     X X     X X

e|---------------------------------------------------------------------------|
B|---------------------------------------------------------------------------|
G|---------------------------------------------------------------------------|
D|---------------------------------------6-6-6---6-6-6---6-6-6---6-6-6-------|
A|---3-3-3----3-3-3----6-6-6----6-6-6----4-4-4---4-4-4---4-4-4---4-4-4-------|
E|---1-1-1----1-1-1----4-4-4----4-4-4----------------------------------------|
     X X      X X      X X      X X      X X     X X     X X     X X

e|---------------------------------------------------------------------------|
B|---------------------------------------------------------------------------|
G|---------------------------------------------------------------------------|
D|---------------------------------------6-6-6---6-6-6-------6-6----6---6----|
A|---3-3-3----3-3-3----6-6-6----6-6-6----4-4-4---4-4-4-------4-4----4---4----|
E|---1-1-1----1-1-1----4-4-4----4-4-4----------------------------------------|
     X X      X X      X X      X X      X X     X X             

e|---------------------------------------------------------------------------|
B|---------------------------------------------------------------------------|
G|---------------------------------------------------------------------------|
D|---------------------------------------6-6-6---6-6-6---6-6-6---6-6-6-------|
A|---3-3-3----3-3-3----6-6-6----6-6-6----4-4-4---4-4-4---4-4-4---4-4-4-------|
E|---1-1-1----1-1-1----4-4-4----4-4-4----------------------------------------|
     X X      X X      X X      X X      X X     X X     X X     X X

e|---------------------------------------------------------------------------|
B|---------------------------------------------------------------------------|
G|---------------------------------------------------------------------------|
D|---------------------------------------6-6-6---6-6-6---6-6-6---6-6-6-------|
A|---3-3-3----3-3-3----6-6-6----6-6-6----4-4-4---4-4-4---4-4-4---4-4-4-------|
E|---1-1-1----1-1-1----4-4-4----4-4-4----------------------------------------|
     X X      X X      X X      X X      X X     X X     X X     X X

e|---------------------------------------------------------------------------|
B|---------------------------------------------------------------------------|
G|---------------------------------------------------------------------------|
D|---------------------------------------6-6-6---6-6-6---6-6-6---6-6-6-------|
A|---3-3-3----3-3-3----6-6-6----6-6-6----4-4-4---4-4-4---4-4-4---4-4-4-------|
E|---1-1-1----1-1-1----4-4-4----4-4-4----------------------------------------|
     X X      X X      X X      X X      X X     X X     X X     X X

e|---------------------------------------------------------------------------|
B|---------------------------------------------------------------------------|
G|------------------------------------------------------------------X-X-X-X--|
D|---------------------------------------6-6-6---6-6-6-6------------X-X-X-X--|
A|---3-3-3----3-3-3----6-6-6----6-6-6----4-4-4---4-4-4-4------------X-X-X-X--|
E|---1-1-1----1-1-1----4-4-4----4-4-4----------------------------------------|
     X X      X X      X X      X X      X X    



CHORUS 2 GUITAR 1
e|---------------------------------------------------------------------------|
B|---------------------------------------------------------------------------|
G|-----8----8--------10----10----------6----6--------------------------------|
D|-----8----8-x6-----10----10-x6-------6----6--x16---------------------------|
A|-----6----6---------8-----8----------4----4--------------------------------|
E|---------------------------------------------------------------------------|

e|---------------------------------------------------------------------------|
B|---------------------------------------------------------------------------|
G|-----8----8--------10----10----------6----6--------------------------------|
D|-----8----8-x6-----10----10-x6-------6----6--x16---------------------------|
A|-----6----6---------8-----8----------4----4--------------------------------|
E|---------------------------------------------------------------------------|

e|---------------------------------------------------------------------------|
B|---------------------------------------------------------------------------|
G|-----5-------6-------3-----------------------------------------------------|
D|-----5-x8----6-x8----3-x8----3---------------------------------------------|
A|-----3-------4-------1-------3-x8------------------------------------------|
E|-----------------------------1---------------------------------------------|

e|---------------------------------------------------------------------------|
B|---------------------------------------------------------------------------|
G|-----8----8--------10----10----------6---6--------5--5---------------------|
D|-----8----8-x6-----10----10-x6-------6---6--x16---5--5---------------------|
A|-----6----6---------8-----8----------4---4--------3--3---------------------|
E|---------------------------------------------------------------------------|

CHORUS 2 GUITAR 2
e|--------------------------------------------------------------------------|
B|--------------------------------------------------------------------------|
G|-----12---12--------13----13----------10---10-----------------------------|
D|-------------x6--------------x6---------------x16-------------------------|
A|-----10---12--------11----11----------8----8------------------------------|
E|--------------------------------------------------------------------------|


e|--------------------------------------------------------------------------|
B|--------------------------------------------------------------------------|
G|-----12---12--------13----13----------10---10-----------------------------|
D|-------------x6--------------x6---------------x16-------------------------|
A|-----10---12--------11----11----------8----8------------------------------|
E|--------------------------------------------------------------------------|

e|--------------------------------------------------------------------------|
B|--------------------------------------------------------------------------|
G|-----8---8--------10----10--------12---12--------13---13------------------|
D|-----------x8--------------x8-------------x8------------x8----------------|
A|-----6---6--------8-----8---------10---10--------11---11------------------|
E|--------------------------------------------------------------------------|

e|--------------------------------------------------------------------------|
B|--------------------------------------------------------------------------|
G|-----12---12--------13----13----------10---10--------9--9-----------------|
D|-------------x6--------------x6---------------x16-------------------------|
A|-----10---12--------11----11----------8----8---------7--7-----------------|
E|--------------------------------------------------------------------------|

SOLO GUITAR 1
e|---------------------------------------------------------------------------|
B|---------------------------------------------------------------------------|
G|------------------------------------------------------------8--------------|
D|------------------------------------------------------------8--------------|
A|------------------------4--3--------------------------------6--------------|
E|-1--1-4-1-4-3-1-1-4-3-1-----------1--1-4-1-4-3-1-1-4-3-1-------------------|

e|---------------------------------------------------------------------------|
B|---------------------------------------------------------------------------|
G|------------------------------------------------------------8--------------|
D|------------------------------------------------------------8--------------|
A|------------------------4--3--------------------------------6--------------|
E|-1--1-4-1-4-3-1-1-4-3-1-----------1--1-4-1-4-3-1-1-4-3-1-------------------|

e|---------------------------------------------------------------------------|
B|---------------------------------------------------------------------------|
G|------------------------------------------------------------8--------------|
D|------------------------------------------------------------8--------------|
A|------------------------4--3--------------------------------6--------------|
E|-1--1-4-1-4-3-1-1-4-3-1-----------1--1-4-1-4-3-1-1-4-3-1-------------------|


SOLO GUITAR 2
e|-------------------------------------------|
B|-------------------------------------------|
G|-------------------------------------------|
D|-----------------------------------13------|
A|-11--11-15-11-15-13-11-11-15-13-11----15---|
E|-------------------------------------------|

e|-------------------------------------------|
B|-------------------------------------------|
G|-------------------------------------------|
D|-------------------------------------------|
A|-11--11-15-11-15-13-11-11-15-13-11-10------|
E|-------------------------------------------|

e|-------------------------------------------|
B|-------------------------------------------|
G|-------------------------------------------|
D|-----------------------------------13------|
A|-11--11-15-11-15-13-11-11-15-13-11----15---|
E|-------------------------------------------|

e|-------------------------------------------|
B|-------------------------------------------|
G|-------------------------------------------|
D|-------------------------------------------|
A|-11--11-15-11-15-13-11-11-15-13-11-10------|
E|-------------------------------------------|

E|-------------------------------------------|
B|-------------------------------------------|
G|-------------------------------------------|
D|-----------------------------------13------|
A|-11--11-15-11-15-13-11-11-15-13-11----15---|
E|-------------------------------------------|

e|-------------------------------------------|
B|-------------------------------------------|
G|-------------------------------------------|
D|-------------------------------------------|
A|-11--11-15-11-15-13-11-11-15-13-11-10------|
E|-------------------------------------------|

e|---------------------------------------|
B|---------------------------------------| 
G|--/10--12--13---------10--12--13---15b-|
D|--------------11-----------------------|
A|---------------------------------------|
E|---------------------------------------|


CHORUS 3 GUITAR 1
e|----------------------------------------------------------------------------|
B|----------------------------------------------------------------------------|
G|------------------------------------------------------------------6--6------|
D|---------------------------------------------------3--3-----------6--6-x16--|
A|---------------------------------------------------3--3-X8--------4--4------|
E|---------------------------------------------------1--1---------------------|

e|---------------------------------------------------------------------------|
B|---------------------------------------------------------------------------|
G|-----8----8--------10----10----------6----6--------------------------------|
D|-----8----8-x6-----10----10-x6-------6----6--x16---------------------------|
A|-----6----6---------8-----8----------4----4--------------------------------|
E|---------------------------------------------------------------------------|

e|---------------------------------------------------------------------------|
B|---------------------------------------------------------------------------|
G|-----5-------6-------3-----------------------------------------------------|
D|-----5-x8----6-x8----3-x8----3---------------------------------------------|
A|-----3-------4-------1-------3-x8------------------------------------------|
E|-----------------------------1---------------------------------------------|

e|---------------------------------------------------------------------------|
B|---------------------------------------------------------------------------|
G|-----8----8--------10----10----------6----6---------5--5-------------------|
D|-----8----8-x6-----10----10-x6-------6----6--x16----5--5-------------------|
A|-----6----6---------8-----8----------4----4---------3--3-------------------|
E|---------------------------------------------------------------------------|

CHORUS 3 GUITAR 2
e|----------------------------------------------------------------------------|
B|----------------------------------------------------------------------------|
G|------------------------------------10---10-------12---12------13---13------|
D|--------------------------------------------x8------------x8-----------x16--|
A|------------------------------------8----8--------10---10------11---11------|
E|----------------------------------------------------------------------------|

e|--------------------------------------------------------------------------|
B|--------------------------------------------------------------------------|
G|-----12---12--------13----13----------10---10-----------------------------|
D|-------------x6--------------x6---------------x16-------------------------|
A|-----10---12--------11----11----------8----8------------------------------|
E|--------------------------------------------------------------------------|

e|--------------------------------------------------------------------------|
B|--------------------------------------------------------------------------|
G|-----8---8--------10----10--------12---12--------13---13------------------|
D|-----------x8--------------x8-------------x8------------x8----------------|
A|-----6---6--------8-----8---------10---10--------11---11------------------|
E|--------------------------------------------------------------------------|

e|--------------------------------------------------------------------------|
B|--------------------------------------------------------------------------|
G|-----12---12--------13----13----------10---10--------9--9-----------------|
D|-------------x6--------------x6---------------x16-------------------------|
A|-----10---12--------11----11----------8----8---------7--7-----------------|
E|--------------------------------------------------------------------------|

OUTRO GUITAR 1
e|---------------------------------------------------------------------------|
B|---------------------------------------------------------------------------|
G|------------------------------------------------------------8--------------|
D|------------------------------------------------------------8--------------|
A|------------------------4--3--------------------------------6--------------|
E|-1--1-4-1-4-3-1-1-4-1-1-----------1--1-4-1-4-3-1-1-4-1-1-------------------|

e|---------------------------------------------------------------------------|
B|---------------------------------------------------------------------------|
G|------------------------------------------------------------8--------------|
D|------------------------------------------------------------8----3---------|
A|------------------------4--3--------------------------------6----3---------|
E|-1--1-4-1-4-3-1-1-4-1-1-----------1--1-4-1-4-3-1-1-4-1-1---------1---------|


OUTRO GUITAR 2
e|-------------------------------------------|
B|-------------------------------------------|
G|-------------------------------------------|
D|-----------------------------------13------|
A|-11--11-15-11-15-13-11-11-15-13-11----15---|
E|-------------------------------------------|

e|-------------------------------------------|
B|-------------------------------------------|
G|-------------------------------------------|
D|-------------------------------------------|
A|-11--11-15-11-15-13-11-11-15-13-11-10------|
E|-------------------------------------------|

e|-------------------------------------------|
B|-------------------------------------------|
G|-------------------------------------------|
D|-----------------------------------13------|
A|-11--11-15-11-15-13-11-11-15-13-11----15---|
E|-------------------------------------------|

e|-------------------------------------------|
B|-------------------------------------------|
G|-------------------------------------------|
D|-------------------------------------------|
A|-11--11-15-11-15-13-11-11-15-13-11-10--8---|
E|-------------------------------------------|
Tap to rate this tab
 
# A B C D E F G H I J K L M N O P Q R S T U V W X Y Z