Song name
# A B C D E F G H I J K L M N O P Q R S T U V W X Y Z

Demi Lovato - Trainwreck tab

Tabbed by: Jose G.
Email: tempestjg@yahoo.com



e|--------------------------------------------------------------------------|
B|---------12---12---------------------12----12-----------------------------|
G|---12/13---13----13--12~-------10/11----11----11--10\---------------------|
D|--------------------------------------------------------------------------|
A|--------------------------------------------------------------------------|
E|--------------------------------------------------------------------------|

e|-----------------------------------------------15/16-15-------------------|
B|---------------12-12----12--15/16-15-------12-----------16-15-------------|
G|---10-11-12-13-------13--------------------------------------16-----------|
D|----------------------------------------------------------------15--------|
A|--------------------------------------------------------------------------|
E|--------------------------------------------------------------------------|


| /   slide up
| \   slide down
Tap to rate this tab
# A B C D E F G H I J K L M N O P Q R S T U V W X Y Z