Song name
# A B C D E F G H I J K L M N O P Q R S T U V W X Y Z

Demi Lovato - Gift Of A Friend tab

Capo on 6th fret

tuning: standard 


INTRO:
e|---------------------------------------------|
B|---------------------------------------------|
G|-5--4--2-----2-------------------------------|
B|---------5--------3--5--2--------------------|
A|----------------------------3----5-----------|
E|---------------------------------------------|



e|---------------------------------------------|
B|---------------------1--3--5-----------------|
G|-5--4--2-----2-----------------4-------------|
B|---------5-------2---------------------------|
A|---------------------------------------------|
E|---------------------------------------------|

just repeat this tab before verses..

=)

please leave your comments at mia.elizaga@yahoo.com...thanks!!

rate..subscribe..enjoy!!
Tap to rate this tab
 
# A B C D E F G H I J K L M N O P Q R S T U V W X Y Z