Song name
# A B C D E F G H I J K L M N O P Q R S T U V W X Y Z

Demi Lovato - Two Worlds Collide tab

---------------------------------------------------------------------------
		           Two Worlds Collide - Demi Lovato
---------------------------------------------------------------------------
Tabbed by: Cardigan
Email: cardigan.blue@hotmail.com

Tuning: Standard

I'm pretty sure this is how Demi exactly plays it :)


Intro

e|---------------------------------------------------------------------=---|
B|-------------------------------------------------------------------------|
G|---9----8----6-----------------------------------------------------------|
D|---9----9----7-----------------------------------------------------------|
A|---7----9----7-----4x----------------------------------------------------|
E|---0----7----5-----------------------------------------------------------|

Verse
 
e|-------------------------------------------------------------------------|
B|-------------------------------------------------------------------------|
G|------9---9---9---------6---9---6---4---2---6---4---2--------------------|
D|------9---9---9---------7---9---6---4---2---6---4---2--------------------|
A|------0---7---0---2x----7---7---4---2---0---4---2---0--------------------|
E|------0---0---7---------5---0---0---0---0---0---0---0--------------------|

Chorus

e|-------------------------------------------------------------------------|
B|-------------------------------------------------------------------------|
G|----9---8---6------6---4---2---6---8-------9---9---6---------------------|
D|----9---9---7------6---4---4---7---9-------9---9---7---------------------|
A|----7---9---7--2x--4---2---4---7---9-------7---9---7--2x-----------------|
E|----0---7---5------0---0---2---5---7-------0---7---5---------------------|

    
verse

e|-------------------------------------------------------------------------|
B|-------------------------------------------------------------------------|
G|------9---9---9---------6---9---6---4---2---6---4---2---6----------------|
D|------9---9---9---------7---9---6---4---2---6---4---2---9----------------|
A|------0---7---0---2x----7---7---4---2---0---4---2---0---9----------------|
E|------0---0---7---------5---0---0---0---0---0---0---0---7----------------|

Chorus

e|-------------------------------------------------------------------------|
B|-------------------------------------------------------------------------|
G|----9---8---6------6---4---2---6---8-------------------------------------|
D|----9---9---7------6---4---4---7---9-------------------------------------|
A|----7---9---7--2x--4---2---4---7---9-------------------------------------|
E|----0---7---5------0---0---2---5---7-------------------------------------|

Bridge

e|-------------------------------------------------------------------------|
B|-------------------------------------------------------------------------|
G|----6---2---4---6---3---6---8--------------------------------------------|
D|----6---2---4---6---4---7---9--------------------------------------------|
A|----4---0---2---4---4---7---9--------------------------------------------|
E|----0---0---0---0---2---5---7--------------------------------------------|
-
Interlude

e|-------------------------------------------------------------------------|
B|-------------------------------------------------------------------------|
G|-----9--9--9-------------------------------------------------------------|
D|-----9--9--9-------------------------------------------------------------|
A|-----0--7--0-------------------------------------------------------------|
E|-----0--0--7-------------------------------------------------------------|

Chorus 2x

e|-------------------------------------------------------------------------|
B|-------------------------------------------------------------------------|
G|----9---8---6------6---4---2---6---8-------------------------------------|
D|----9---9---7------6---4---4---7---9-------------------------------------|
A|----7---9---7--2x--4---2---4---7---9-------------------------------------|
E|----0---7---5------0---0---2---5---7-------------------------------------|

************************************

| /   slide up
| \   slide down
| h   hammer-on
| p   pull-off
| ~   vibrato
| +   harmonic
| x   Mute note
| b   Bend
| pb  Pre-bend
| br  Bend release
| pbr Pre-bend release
| brb Bend release bend

************************************
Tap to rate this tab
 
# A B C D E F G H I J K L M N O P Q R S T U V W X Y Z