Demi Lovato - Wouldnt Change A Thing chords

Highlighted       Show chord diagrams
Demi Lovato & Joe Jonas - Wouldn't Change A Thing
From the Disney Channel Original Movie - Camp Rock 2: The Final Jam

Tabbed by: Jenny Pho
Email: jennypho@live.com.au
Check out the video at: http://www.youtube.com/watch?v=dSBdfhbSPYE



Chords:

       E5                 E/D#                C#m                  B
|-------------|     |-------------|     |-------------|     |-------------|
|-------------|     |-------------|     |-------------|     |-------------|
|--------9----|     |--------9----|     |--------6----|     |--------4----|
|--------9----|     |--------9----|     |--------6----|     |--------4----|
|----7--------|     |----6--------|     |----4--------|     |----2--------|
|-------------|     |-------------|     |-------------|     |-------------|

       A                  B5                   A5
|-------------|     |-------------|     |-------------|
|-------------|     |-------------|     |-------------|
|--------2----|     |------6------|     |------8------|
|--------2----|     |--------7----|     |--------9----|
|----0--------|     |--------7----|     |--------9----|
|-------------|     |----5--------|     |----7--------|


Tuning: Standard/Capo on 1st fret


E5   E/D#   C#m   B


E5                                 E/D#
It's like he doesn't hear a word I say
                      C#m
His mind is somewhere far away
       B
And I don't know how to get there
E5                                 E/D#
It's like all he wants is to chill out
                        C#m
Makes me wanna pull all my hair out
         B
Like he doesn't even care


C#m
You me
       B
We're face to face
        A
But we don't see eye to eye


E5
Like fire and rain
        E/D#
You can drive me insane
      C#m                          A
But I can't stay mad at you for anything
E5
Like Venus and Mars
           E/D#
We're like different stars
           C#m                      A
You're the harmony to every song I sing
      C#m      B        E5
And I wouldn't change a thing


E5                         E/D#
Why does he try to read my mind?
                       C#m
It's not good to psychoanalyse
            B
That's what all of my friends say


C#m
You me
       B
We're face to face
        A
But we don't see eye to eye


E5
Like fire and rain
        E/D#
You can drive me insane
      C#m                          A
But I can't stay mad at you for anything
E5
Like Venus and Mars
           E/D#
We're like different stars
           C#m                      A
You're the harmony to every song I sing
      C#m      B        E5
And I wouldn't change a thing


B5
When Iím yes, she's no
A5                             E5
When I hold on, he just lets go
B5
We're perfectly imperfect
A5                      E5
But I wouldn't change a thing
A5
No


E5
Like fire and rain
        E/D#
You can drive me insane
      C#m                          A
But I can't stay mad at you for anything
E5
Like Venus and Mars
           E/D#
We're like different stars
           C#m                      A
You're the harmony to every song I sing
      C#m      B        E5
And I wouldn't change a thing


E/D#
Yeah


      C#m                          A
But I can't stay mad at you for anything
E5
Like Venus and Mars
           E/D#
We're like different stars
           C#m                      A
You're the harmony to every song I sing
      C#m      B        E5
But I wouldn't change a thing
     C#m      B        E5
No I wouldn't change a thing

Tap to rate this tab
 
# A B C D E F G H I J K L M N O P Q R S T U V W X Y Z