Song name
# A B C D E F G H I J K L M N O P Q R S T U V W X Y Z

Demi Lovato - What To Do tab

My first tab!

What to do - Demi Lovato

Tuning: standard

Verse
e|----------------------------------------------------------------|
B|----------------------------------------------------------------|
G|-------3-------------------5------------------------------------|
D|----5-----------8-------5--------6-------8----------------------|x2
A|--6----------8-------/3----------6-------8----------------------|
E|----------/6------------------/4-------6------------------------|


e|----------------------------------------------------------------|
B|----------------------------------------------------------------|
G|-------3-------------------5------------7h8---------------------|
D|----5-----------8-------5--------6------------------------------|
A|--6----------8-------/3-----------------------------------------|
E|----------/6------------------/4------/6------------------------|

e|----------------------------------------------------------------|
B|----------------------------------------------------------------|
G|-------3------------------5-------------------------------------|
D|----5-----------8-------5--------6-------8----------------------|
A|--6----------8-------/3----------6-------8----------------------|
E|----------/6------------------/4-------6------------------------|

e|----------------------------------------------------------------|
B|----------------------------------------------------------------|
G|-------3-------------------5------------7h8---------------------|
D|----5-----------8-------5--------6------------------------------|
A|--6----------8-------/3-----------------------------------------|
E|----------/6------------------/4------/6------------------------|


Chorus
e|----------------------------------------------------------------|
B|----------------------------------------------------------------|
G|---------------------8-8---8--8-8-8-8---------------------------|
D|--6-6---8--8-8-8-8---8-8---8--8-8-8-8---------------------------|x3
A|--6-6---8--8-8-8-8---6-6---5--5-5-5-5---------------------------|
E|--4-4---6--6-6-6-6----------------------------------------------|

e|----------------------------------------------------------------|
B|----------------------------------------------------------------|
G|---------------------8------------------------------------------|
D|--6-6---8--8-8-8-8---8------------------------------------------|
A|--6-6---8--8-8-8-8---6------------------------------------------|
E|--4-4---6--6-6-6-6----------------------------------------------|


Verse
e|----------------------------------------------------------------|
B|----------------------------------------------------------------|
G|-------3------------------5-------------------------------------|
D|----5-----------8-------5--------6-------8----------------------|
A|--6----------8-------/3----------6-------8----------------------|
E|----------/6------------------/4-------6------------------------|

e|----------------------------------------------------------------|
B|----------------------------------------------------------------|
G|-------3-------------------5------------7h8---------------------|
D|----5-----------8-------5--------6------------------------------|
A|--6----------8-------/3-----------------------------------------|
E|----------/6------------------/4------/6------------------------|

e|----------------------------------------------------------------|
B|----------------------------------------------------------------|
G|-------3------------------5-------------------------------------|
D|----5-----------8-------5--------6-------8----------------------|
A|--6----------8-------/3----------6-------8----------------------|
E|----------/6------------------/4-------6------------------------|

e|----------------------------------------------------------------|
B|----------------------------------------------------------------|
G|-------3-------------------5------------7h8---------------------|
D|----5-----------8-------5--------6------------------------------|
A|--6----------8-------/3-----------------------------------------|
E|----------/6------------------/4------/6------------------------|


Same chorus but without the D# at the end


Bridge
e|-----------------------------------------------------------------------|
B|-----------------------------------------------------------------------|
G|-------------------8-8-8-8-8-8-8-8-------------------------------------|
D|--6-6-6-6-6-6-6-6--8-8-8-8-8-8-8-8--8-8-8-8-8-8-8-8--6-6-6-6-6-6-6-6---|x2
A|--6-6-6-6-6-6-6-6--6-6-6-6-6-6-6-6--8-8-8-8-8-8-8-8--6-6-6-6-6-6-6-6---|
E|--4-4-4-4-4-4-4-4-------------------6-6-6-6-6-6-6-6--4-4-4-4-4-4-4-4---|


Verse
e|----------------------------------------------------------------|
B|----------------------------------------------------------------|
G|-------3------------------5-------------------------------------|
D|----5-----------8-------5--------6-------8----------------------|
A|--6----------8-------/3----------6-------8----------------------|
E|----------/6------------------/4-------6------------------------|

e|----------------------------------------------------------------|
B|----------------------------------------------------------------|
G|-------3-------------------5------------7h8---------------------|
D|----5-----------8-------5--------6------------------------------|
A|--6----------8-------/3-----------------------------------------|
E|----------/6------------------/4------/6------------------------|

e|----------------------------------------------------------------|
B|----------------------------------------------------------------|
G|-------3------------------5-------------------------------------|
D|----5-----------8-------5--------6-------8----------------------|
A|--6----------8-------/3----------6-------8----------------------|
E|----------/6------------------/4-------6------------------------|

e|----------------------------------------------------------------|
B|----------------------------------------------------------------|
G|-------3-------------5------------------------------------------|
D|----5-----------8----5------------------------------------------|
A|--6----------8-------3------------------------------------------|
E|----------/6----------------------------------------------------|


Chorus
Tap to rate this tab
 
# A B C D E F G H I J K L M N O P Q R S T U V W X Y Z