Song name
# A B C D E F G H I J K L M N O P Q R S T U V W X Y Z

Demi Lovato - What To Do tab

Tuning: Drop D

Verse:
e|-------------------------------------------------------------------------|
B|-------------------------------------------------------------------------|
G|-------------------------------------------------------------------------|
D|-------0--------------8----------------10--------------6--------8--------|
A|----1--------------8---------------10---------------6--------8-----------|
E|-1------------3/5------------8/10--------------5/6--------8--------------|

Chorus:
e|-----------------------------------------------------------------------|
B|-----------------------------------------------------------------------|
G|-----------------------------------------------------------------------|x3
D|-3--3--3--3--^8--^8--8--8--8---1--1--1--1--^6--^6--6--6--6-------------|
A|-3--3--3--3--^8--^8--8--8--8---1--1--1--1--^6--^6--6--6--6-------------|
E|-3--3--3--3--^8--^8--8--8--8---1--1--1--1--^6--^6--6--6--6-------------|

e|-------------------------------------------------------------------------|
B|-------------------------------------------------------------------------|
G|-------------------------------------------------------------------------|
D|-8--8--8--8--^10--^10--10--10--1-----------------------------------------|
A|-8--8--8--8--^10--^10--10--10--1-----------------------------------------|
E|-8--8--8--8--^10--^10--10--10--1-----------------------------------------|

Bridge:
e|-------------------------------------------------------------------------|
B|-------------------------------------------------------------------------|
G|-------------------------------------------------------------------------|
D|-10--10--10--10--^1--^1--1--1--1---8--8--8--8--^3--^3--3--3--3-----------|
A|-10--10--10--10--^1--^1--1--1--1---8--8--8--8--^3--^3--3--3--3-----------|
E|-10--10--10--10--^1--^1--1--1--1---8--8--8--8--^3--^3--3--3--3-----------|
Bridge cont.
e|-------------------------------------------------------------------------|
B|-------------------------------------------------------------------------|
G|-------------------------------------------------------------------------|
D|-10--10--10--10--^1--^1--1--1--1---8--8--8--8--^6--^6--6--6--6-----------|
A|-10--10--10--10--^1--^1--1--1--1---8--8--8--8--^6--^6--6--6--6-----------|
E|-10--10--10--10--^1--^1--1--1--1---8--8--8--8--^6--^6--6--6--6-----------|

Song Order:
Verse x 5
Chorus
Verse x 4
Chorus
Bridge
Verse x 3
Verse without the 5/6666888
Chorus x2
Second half of chorus until fade


****************************************************************************
| /   slide up
| ^#  Upward strum
Tap to rate this tab
 
# A B C D E F G H I J K L M N O P Q R S T U V W X Y Z