Song name
# A B C D E F G H I J K L M N O P Q R S T U V W X Y Z

Demi Lovato - Skyscraper tab

Artist: Demi Lovato
Song: Skyscraper

* Notes in parenthesis are not strumed. They are tied to the previous notes. *

 Intro
  E E E E E E E E E E E E E E E E E E E E E E E E E E E E E E E E
|-------------------------------------------------------------------|
|-------------------------------------------------------------------|
|-4-4-4-4-4-4-4-5-5-5-5-5-5-5-5-9-9-9-9-9-9-9-9-7-7-7-7-7-7-7-7-4---|
|-5-5-5-5-5-5-5-5-5-5-5-5-5-5-5-9-9-9-9-9-9-9-9-7-7-7-7-7-7-7-7-5---|
|-5-5-5-5-5-5-5-3-3-3-3-3-3-3-3-7-7-7-7-7-7-7-7-5-5-5-5-5-5-5-5-5---|
|-3-3-3-3-3-3-3-------------------------------------------------3---|


  E E E E E E E E E E E E E E E E E E E E E E E E E E E E E E E E
|--------------------------------------------------------------------|
|--------------------------------------------------------------------|
|-4-4-4-4-4-4-4-5-5-5-5-5-5-5-5-9-9-9-9-9-9-9-9-7-7-7-7-7-7-7-7-4----|
|-5-5-5-5-5-5-5-5-5-5-5-5-5-5-5-9-9-9-9-9-9-9-9-7-7-7-7-7-7-7-7-5----|
|-5-5-5-5-5-5-5-3-3-3-3-3-3-3-3-7-7-7-7-7-7-7-7-5-5-5-5-5-5-5-5-5----|
|-3-3-3-3-3-3-3-------------------------------------------------3----|
                                                    

 Verse
  E E E E E E E E E E E E E E E E E E E E E E E E E E E E E E E E
|--------------------------------------------------------------------|
|--------------------------------------------------------------------|
|-4-4-4-4-4-4-4-5-5-5-5-5-5-5-5-9-9-9-9-9-9-9-9-7-7-7-7-7-7-7-7-4----|
|-5-5-5-5-5-5-5-5-5-5-5-5-5-5-5-9-9-9-9-9-9-9-9-7-7-7-7-7-7-7-7-5----|
|-5-5-5-5-5-5-5-3-3-3-3-3-3-3-3-7-7-7-7-7-7-7-7-5-5-5-5-5-5-5-5-5----|
|-3-3-3-3-3-3-3-------------------------------------------------3----|


  E E E E E E E E E E E E E E E E E E E E E E E E E E E E E E E E
|---------------------------------------------------------------3----|
|---------------------------------------------------------------3----|
|-4-4-4-4-4-4-4-5-5-5-5-5-5-5-5-9-9-9-9-9-9-9-9-7-7-7-7-7-7-7-7-4----|
|-5-5-5-5-5-5-5-5-5-5-5-5-5-5-5-9-9-9-9-9-9-9-9-7-7-7-7-7-7-7-7-5----|
|-5-5-5-5-5-5-5-3-3-3-3-3-3-3-3-7-7-7-7-7-7-7-7-5-5-5-5-5-5-5-5-5----|
|-3-3-3-3-3-3-3-------------------------------------------------3----|

  
  +E  E Q  E E E Q  E Q  E E E Q  E E Q  E E W        E
|-(3)-3-3--3-3-3-3--3-3--3-3-3-0--0-0-0--0-0-2--------3----|
|-(3)-3-3--3-3-3-5--5-5--5-5-5-0--0-0-0--0-0-3--------3----|
|-(4)-4-4--4-4-4-5--5-5--5-5-5-0--0-0-0--0-0-2--------4----|
|-(5)-5-5--5-5-5-5--5-5--5-5-5-2--2-2-2--2-2-0--------5----|
|-(5)-5-5--5-5-5-3--3-3--3-3-3-2--2-2-2--2-2----------5----|
|-(3)-3-3--3-3-3---------------0--0-0-0--0-0----------3----|


 Chorus
  +E  E E Q  E E Q  E Q  E E E Q  E E Q  E E Q.   E E Q  E E
|-(3)-3-3-3--3-3-3--3-3--3-3-3-0--0-0-0--0-0-2----2-2-2--2-3----|
|-(3)-3-3-3--3-3-5--5-5--5-5-5-0--0-0-0--0-0-3----3-3-3--3-3----|
|-(4)-4-4-4--4-4-5--5-5--5-5-5-0--0-0-0--0-0-2----2-2-2--2-4----|
|-(5)-5-5-5--5-5-5--5-5--5-5-5-2--2-2-2--2-2-0----0-0-0--0-5----|
|-(5)-5-5-5--5-5-3--3-3--3-3-3-2--2-2-2--2-2---------------5----|
|-(3)-3-3-3--3-3---------------0--0-0-0--0-0---------------3----|


  +E  E Q  E E E Q.   E E Q  E Q  E Q  E E E Q  E Q  E E E E
|-(3)-3-3--3-3-3-3----3-3-3--3-0--0-0--0-0-0-2--2-2--2-2-2-3----|
|-(3)-3-3--3-3-3-5----5-5-5--5-0--0-0--0-0-0-3--3-3--3-3-3-3----|
|-(4)-4-4--4-4-4-5----5-5-5--5-0--0-0--0-0-0-2--2-2--2-2-2-4----|
|-(5)-5-5--5-5-5-5----5-5-5--5-2--2-2--2-2-2-0--0-0--0-0-0-5----|
|-(5)-5-5--5-5-5-3----3-3-3--3-2--2-2--2-2-2---------------5----|
|-(3)-3-3--3-3-3---------------0--0-0--0-0-0---------------3----|


  +E  E E Q  E E Q  E Q  E E E Q  E E Q  E E Q.   E E Q  E E
|-(3)-3-3-3--3-3-3--3-3--3-3-3-0--0-0-0--0-0-2----2-2-2--2-3----|
|-(3)-3-3-3--3-3-5--5-5--5-5-5-0--0-0-0--0-0-3----3-3-3--3-3----|
|-(4)-4-4-4--4-4-5--5-5--5-5-5-0--0-0-0--0-0-2----2-2-2--2-4----|
|-(5)-5-5-5--5-5-5--5-5--5-5-5-2--2-2-2--2-2-0----0-0-0--0-5----|
|-(5)-5-5-5--5-5-3--3-3--3-3-3-2--2-2-2--2-2---------------5----|
|-(3)-3-3-3--3-3---------------0--0-0-0--0-0---------------3----|


  +E  E Q  E E E Q.   E E Q  E Q  E Q  E E E W        E
|-(3)-3-3--3-3-3-3----3-3-3--3-0--0-0--0-0-0-2-------------|
|-(3)-3-3--3-3-3-5----5-5-5--5-0--0-0--0-0-0-3-------------|
|-(4)-4-4--4-4-4-5----5-5-5--5-0--0-0--0-0-0-2-------------|
|-(5)-5-5--5-5-5-5----5-5-5--5-2--2-2--2-2-2-0-------------|
|-(5)-5-5--5-5-5-3----3-3-3--3-2--2-2--2-2-2---------------|
|-(3)-3-3--3-3-3---------------0--0-0--0-0-0---------------|


 Verse
  E E E E E E E E E E E E E E E E E E E E E E E E E E E E E E E E
|--------------------------------------------------------------------|
|--------------------------------------------------------------------|
|-4-4-4-4-4-4-4-5-5-5-5-5-5-5-5-9-9-9-9-9-9-9-9-7-7-7-7-7-7-7-7-4----|
|-5-5-5-5-5-5-5-5-5-5-5-5-5-5-5-9-9-9-9-9-9-9-9-7-7-7-7-7-7-7-7-5----|
|-5-5-5-5-5-5-5-3-3-3-3-3-3-3-3-7-7-7-7-7-7-7-7-5-5-5-5-5-5-5-5-5----|
|-3-3-3-3-3-3-3-------------------------------------------------3----|


  E E E E E E E E E E E E E E E E E E E E E E E E E E E E E E E E
|---------------------------------------------------------------3----|
|---------------------------------------------------------------3----|
|-4-4-4-4-4-4-4-5-5-5-5-5-5-5-5-9-9-9-9-9-9-9-9-7-7-7-7-7-7-7-7-4----|
|-5-5-5-5-5-5-5-5-5-5-5-5-5-5-5-9-9-9-9-9-9-9-9-7-7-7-7-7-7-7-7-5----|
|-5-5-5-5-5-5-5-3-3-3-3-3-3-3-3-7-7-7-7-7-7-7-7-5-5-5-5-5-5-5-5-5----|
|-3-3-3-3-3-3-3-------------------------------------------------3----|


  +E  E Q  E E E Q  E Q  E E E Q  E E Q  E E W        E
|-(3)-3-3--3-3-3-3--3-3--3-3-3-0--0-0-0--0-0-2--------3----|
|-(3)-3-3--3-3-3-5--5-5--5-5-5-0--0-0-0--0-0-3--------3----|
|-(4)-4-4--4-4-4-5--5-5--5-5-5-0--0-0-0--0-0-2--------4----|
|-(5)-5-5--5-5-5-5--5-5--5-5-5-2--2-2-2--2-2-0--------5----|
|-(5)-5-5--5-5-5-3--3-3--3-3-3-2--2-2-2--2-2----------5----|
|-(3)-3-3--3-3-3---------------0--0-0-0--0-0----------3----|


 Chorus
  +E  E E Q  E E Q  E Q  E E E Q  E E Q  E E Q.   E E Q  E E
|-(3)-3-3-3--3-3-3--3-3--3-3-3-0--0-0-0--0-0-2----2-2-2--2-3----|
|-(3)-3-3-3--3-3-5--5-5--5-5-5-0--0-0-0--0-0-3----3-3-3--3-3----|
|-(4)-4-4-4--4-4-5--5-5--5-5-5-0--0-0-0--0-0-2----2-2-2--2-4----|
|-(5)-5-5-5--5-5-5--5-5--5-5-5-2--2-2-2--2-2-0----0-0-0--0-5----|
|-(5)-5-5-5--5-5-3--3-3--3-3-3-2--2-2-2--2-2---------------5----|
|-(3)-3-3-3--3-3---------------0--0-0-0--0-0---------------3----|


  +E  E Q  E E E Q.   E E Q  E Q  E Q  E E E Q  E Q  E E E E
|-(3)-3-3--3-3-3-3----3-3-3--3-0--0-0--0-0-0-2--2-2--2-2-2-3----|
|-(3)-3-3--3-3-3-5----5-5-5--5-0--0-0--0-0-0-3--3-3--3-3-3-3----|
|-(4)-4-4--4-4-4-5----5-5-5--5-0--0-0--0-0-0-2--2-2--2-2-2-4----|
|-(5)-5-5--5-5-5-5----5-5-5--5-2--2-2--2-2-2-0--0-0--0-0-0-5----|
|-(5)-5-5--5-5-5-3----3-3-3--3-2--2-2--2-2-2---------------5----|
|-(3)-3-3--3-3-3---------------0--0-0--0-0-0---------------3----|


  +E  E E Q  E E Q  E Q  E E E Q  E E Q  E E Q.   E E Q  E E
|-(3)-3-3-3--3-3-3--3-3--3-3-3-0--0-0-0--0-0-2----2-2-2--2-3----|
|-(3)-3-3-3--3-3-5--5-5--5-5-5-0--0-0-0--0-0-3----3-3-3--3-3----|
|-(4)-4-4-4--4-4-5--5-5--5-5-5-0--0-0-0--0-0-2----2-2-2--2-4----|
|-(5)-5-5-5--5-5-5--5-5--5-5-5-2--2-2-2--2-2-0----0-0-0--0-5----|
|-(5)-5-5-5--5-5-3--3-3--3-3-3-2--2-2-2--2-2---------------5----|
|-(3)-3-3-3--3-3---------------0--0-0-0--0-0---------------3----|


  +E  E Q  E E E Q.   E E Q  E Q  E Q  E E E Q  E E E H
|-(3)-3-3--3-3-3-3----3-3-3--3-0--0-0--0-0-0-2--2-2-2-2----|
|-(3)-3-3--3-3-3-5----5-5-5--5-0--0-0--0-0-0-3--3-3-3-3----|
|-(4)-4-4--4-4-4-5----5-5-5--5-0--0-0--0-0-0-2--2-2-2-2----|
|-(5)-5-5--5-5-5-5----5-5-5--5-2--2-2--2-2-2-0--0-0-0-0----|
|-(5)-5-5--5-5-5-3----3-3-3--3-2--2-2--2-2-2---------------|
|-(3)-3-3--3-3-3---------------0--0-0--0-0-0---------------|


 Bridge
  Q  Q  E E E Q  E Q  E E E Q  E Q  E E E Q  E E Q  E E E
|-3--3--3-3-3-3--3-3--3-3-3-3--3-3--3-3-3-3--3-3-3--3-3-3----|
|-3--3--3-3-3-3--3-3--3-3-3-3--3-3--3-3-3-3--3-3-3--3-3-3----|
|-2--2--2-2-2-0--0-0--0-0-0-0--0-0--0-0-0-0--0-0-0--0-0-0----|
|-2--2--2-2-2-2--2-2--2-2-2-2--2-2--2-2-2-0--0-0-0--0-0-0----|
|-0--0--0-0-0-2--2-2--2-2-2-3--3-3--3-3-3-2--2-2-2--2-2-2----|
|-------------0--0-0--0-0-0---------------3--3-3-3--3-3-3----|


  Q  Q  E E E Q  E Q  E E E Q  E Q  E E E Q  E Q  E Q  E
|-3--3--3-3-3-3--3-3--3-3-3-3--3-3--3-3-3-3--3-3--3-3--2----|
|-3--3--3-3-3-3--3-3--3-3-3-3--3-3--3-3-3-3--3-3--3-3--3----|
|-2--2--2-2-2-0--0-0--0-0-0-0--0-0--0-0-0-0--0-0--0-0--2----|
|-2--2--2-2-2-2--2-2--2-2-2-2--2-2--2-2-2-0--0-0--0-0--0----|
|-0--0--0-0-0-2--2-2--2-2-2-3--3-3--3-3-3-2--2-2--2-2-------|
|-------------0--0-0--0-0-0---------------3--3-3--3-3-------|


  +W         +H     +Q. E
|-(2)--------(2)----(2)-3----|
|-(3)--------(3)----(3)-3----|
|-(2)--------(2)----(2)-4----|
|-(0)--------(0)----(0)-5----|
|-----------------------5----|
|-----------------------3----|


 Chorus
  +H     +Q.   W        W        W        E
|-(3)----(3)---3--------0--------2--------3----|
|-(3)----(3)---5--------0--------3--------3----|
|-(4)----(4)---5--------0--------2--------4----|
|-(5)----(5)---5--------2--------0--------5----|
|-(5)----(5)---3--------2-----------------5----|
|-(3)----(3)------------0-----------------3----|


  +E  E Q  E E E Q.   E E Q  E Q  E Q  E E E Q  E Q  E E E E
|-(3)-3-3--3-3-3-3----3-3-3--3-0--0-0--0-0-0-2--2-2--2-2-2-3----|
|-(3)-3-3--3-3-3-5----5-5-5--5-0--0-0--0-0-0-3--3-3--3-3-3-3----|
|-(4)-4-4--4-4-4-5----5-5-5--5-0--0-0--0-0-0-2--2-2--2-2-2-4----|
|-(5)-5-5--5-5-5-5----5-5-5--5-2--2-2--2-2-2-0--0-0--0-0-0-5----|
|-(5)-5-5--5-5-5-3----3-3-3--3-2--2-2--2-2-2---------------5----|
|-(3)-3-3--3-3-3---------------0--0-0--0-0-0---------------3----|


  +E  E E Q  E E Q  E Q  E E E Q  E E Q  E E Q.   E E Q  E E
|-(3)-3-3-3--3-3-3--3-3--3-3-3-0--0-0-0--0-0-2----2-2-2--2-3----|
|-(3)-3-3-3--3-3-5--5-5--5-5-5-0--0-0-0--0-0-3----3-3-3--3-3----|
|-(4)-4-4-4--4-4-5--5-5--5-5-5-0--0-0-0--0-0-2----2-2-2--2-4----|
|-(5)-5-5-5--5-5-5--5-5--5-5-5-2--2-2-2--2-2-0----0-0-0--0-5----|
|-(5)-5-5-5--5-5-3--3-3--3-3-3-2--2-2-2--2-2---------------5----|
|-(3)-3-3-3--3-3---------------0--0-0-0--0-0---------------3----|


  +E  E Q  E E E Q.   E E Q  E Q  E Q  E E E Q.   E E Q  E E
|-(3)-3-3--3-3-3-3----3-3-3--3-0--0-0--0-0-0-2----2-2-2--2-3----|
|-(3)-3-3--3-3-3-5----5-5-5--5-0--0-0--0-0-0-3----3-3-3--3-3----|
|-(4)-4-4--4-4-4-5----5-5-5--5-0--0-0--0-0-0-2----2-2-2--2-4----|
|-(5)-5-5--5-5-5-5----5-5-5--5-2--2-2--2-2-2-0----0-0-0--0-5----|
|-(5)-5-5--5-5-5-3----3-3-3--3-2--2-2--2-2-2---------------5----|
|-(3)-3-3--3-3-3---------------0--0-0--0-0-0---------------3----|


 Ending
  +E  E Q  E E E Q.   E E Q  E Q  E Q  E E E Q.   E E Q  E E
|-(3)-3-3--3-3-3-3----3-3-3--3-0--0-0--0-0-0-2----2-2-2--2-3----|
|-(3)-3-3--3-3-3-5----5-5-5--5-0--0-0--0-0-0-3----3-3-3--3-3----|
|-(4)-4-4--4-4-4-5----5-5-5--5-0--0-0--0-0-0-2----2-2-2--2-4----|
|-(5)-5-5--5-5-5-5----5-5-5--5-2--2-2--2-2-2-0----0-0-0--0-5----|
|-(5)-5-5--5-5-5-3----3-3-3--3-2--2-2--2-2-2---------------5----|
|-(3)-3-3--3-3-3---------------0--0-0--0-0-0---------------3----|


  +E  E Q  E E E W
|-(3)-3-3--3-3-3-3----|
|-(3)-3-3--3-3-3-3----|
|-(4)-4-4--4-4-4-4----|
|-(5)-5-5--5-5-5-5----|
|-(5)-5-5--5-5-5-5----|
|-(3)-3-3--3-3-3-3----|


www.guitarstars.biz
Tap to rate this tab
 
# A B C D E F G H I J K L M N O P Q R S T U V W X Y Z