Song name
# A B C D E F G H I J K L M N O P Q R S T U V W X Y Z

Demi Lovato - What To Do tab


INTRO:

e|-------------------------------------------------------------|
B|-------------------------------------------------------------|
G|------------------4---------6-----------6--------8-----------|
D|------6---------4---------6----------7—(7)----9-(9)----------|   
A|----7-----------------2^4--------0h7--------9----------------|
E|--0---------2^4----------------------------------------------|
 


VERSE 1:
  

  Tell me what to do, oohh, about you       I already know
e|-------------------------------------------------------------|
B|-------------------------------------------------------------|
G|------------------4---------6-----------6--------8-----------|
D|------6---------4---------6----------7—(7)----9-(9)----------|   
A|----7-----------------2^4--------0h7--------9----------------|
E|--0---------2^4----------------------------------------------|


   I can see it in your eyes when you telling the truth
e|-------------------------------------------------------------|
B|-------------------------------------------------------------|
G|------------------4---------6-----------6-------9h10---------|
D|------6---------4---------6----------7—(7)-----9-------------|
A|----7-----------------2^4--------0h7--------9----------------|
E|--0---------2^4----------------------------------------------|


  Cause it's been a long time comin'     So where you runin’ to?
e|-------------------------------------------------------------|
B|-------------------------------------------------------------|
G|------------------4---------6-----------6--------8-----------|
D|------6---------4---------6----------7—(7)----9—(9)----------| 
A|----7-----------------2^4--------0h7--------9----------------|
E|--0---------2^4----------------------------------------------|


  Tell me what to do, oohh, about you
e|-------------------------------------------------------------|
B|-------------------------------------------------------------|
G|------------------4---------6-----------6-------9h10---------|
D|------6---------4---------6----------7—(7)----9--------------|
A|----7-----------------2^4--------0h7--------9----------------|
E|--0---------2^4----------------------------------------------|

CHORUS:     *STRUM*

  You’ve got your   Way of speaking    Even the      Air you’re breathin’
e|--x----------x------------0--------0-------------------------|
B|--0----------0------------0--------0-------------------------|
G|--2----------4------------1--------2-------------------------|
D|--4----------4------------2--------2-------------------------|
A|--4----------2------------2--------0-------------------------|
E|--x----------x------------0--------0-------------------------|

  You could be     Anything but   You don’t know   What to believe in 
e|--x----------x------------0--------0-------------------------|
B|--0----------0------------0--------0-------------------------|
G|--2----------4------------1--------2-------------------------|
D|--4----------4------------2--------2-------------------------|
A|--4----------2------------2--------0-------------------------|
E|--x----------x-----------------------------------------------|


 You’ve got the    World before you     If I could       Only show  you
e|--x----------x------------0--------0-------------------------|
B|--0----------0------------0--------0-------------------------|
G|--2----------4------------1--------2-------------------------|
D|--4----------4------------2--------2-------------------------|
A|--4----------2------------2--------0-------------------------|
E|--x----------x------------0--------0-------------------------|


 But you don’t  Know what   To do
e|--x------------x------------0--------------------------------|
B|--0------------0------------0--------------------------------|
G|--2------------4------------1--------------------------------|
D|--4------------4------------2---*let it ring*----------------|
A|--4------------2------------2--------------------------------|
E|--x------------x------------0--------------------------------|





VERSE 2 : Repeat VERSE 1 and then CHORUS.


BRIDGE:    *STRUM*

 
  You think about it                    Can you ever change    
e|---------------------0------------------------------|
B|--5------------------0------------------------------|
G|--6------------------1------------------------------|
D|--6------------------2------------------------------|
A|--4------------------2------------------------------|
E|--x------------------0------------------------------|

 Finish what you've started     Make me wanna stay
e|----------------------------------------------------|
B|-----0--------------------------5-------------------|
G|-----4--------------------------6-------------------|
D|-----4--------------------------7-------------------|
A|-----2--------------------------7-------------------|
E|-----x--------------------------x-------------------|

 Tired of conversation     Show me something real
e|-----------------------------0----------------------|
B|--5--------------------------0----------------------|
G|--6--------------------------1----------------------|
D|--6--------------------------2----------------------|
A|--4--------------------------2----------------------|
E|--x--------------------------0----------------------|

 Find out what your part is   Play it how you feel
e|----------------------------------------------------|
B|-----7--------------------------5-------------------|
G|-----8--------------------------6----*play it*------|
D|-----9--------------------------7----*a little*-----|
A|-----9--------------------------7—---*bit longer*---|
E|-----x--------------------------x-------------------|




VERSE 3:

 
  Tell me what to do, oohh, about you                                       Is there any way
e|-------------------------------------------------------------|
B|-------------------------------------------------------------|
G|------------------4---------6-----------6--------8-----------|
D|------6---------4---------6----------7—(7)----9-(9)----------|   
A|----7-----------------2^4--------0h7--------9----------------|
E|--0---------2^4----------------------------------------------|


  Anything I can say, won't break us in two
e|-------------------------------------------------------------|
B|-------------------------------------------------------------|
G|------------------4---------6-----------6-------9h10---------|
D|------6---------4---------6----------7—(7)-----9-------------|
A|----7-----------------2^4--------0h7--------9----------------|
E|--0---------2^4----------------------------------------------|

  Cause it's been a long time comin'         I can’t stop loving you…
e|----------------------------------------------------------------|
B|----------------------------------------------------------------|
G|------------------4---------6-----------6--------8--------------|
D|------6---------4---------6----------7—(7)----9—(9)-------------| 
A|----7-----------------2^4--------0h7--------9-------------------|
E|--0---------2^4-------------------------------------------------|
	
  Tell me what to do, ooh,        about you
e|----------------------------------------------------------------|
B|----------------------------------------------------------------|
G|------------------4------6-----------------6---------9h10-------|
D|------6---------4--------6--------------7—(7)------9------------|
A|----7--------------------4----------0h7----------9--------------|
E|--0---------2^4-------------------------------------------------|



Repeat CHORUS  but:
 You've got your way of speaking
Even the air you're breathin'
You could be anything
But you don't know what to believe in
You got the world before you
If I could only show you
That you don’t  Know what  To do        *play it as it fades out*
e|--x------------x------------x--------x--------0--------0--------|
B|--0------------0------------0--------0--------0--------0--------|
G|--2------------4------------2--------2--------1--------2--------|
D|--4------------4------------4--------4--------2--------2--------|
A|--4------------2------------4--------4--------2--------0--------|
E|--x------------x------------x--------x--------0--------x--------|


Tap to rate this tab
# A B C D E F G H I J K L M N O P Q R S T U V W X Y Z