Song name
# A B C D E F G H I J K L M N O P Q R S T U V W X Y Z

Demi Lovato - So Far So Great tab

INTRO + 1st VERSE:

e|------------------------------------------------------------|
B|------------------------------------------------------------|
G|------------------------------------------------------------|
D|------------------------2-4-4h5-4-2-4-2---------------------|
A|------------------2-4-5-------------------------------------|
E|--0h30h5-0h3-0---------------------------------------------|

e|------------------------------------------------------------|
B|------------------------------------------------------------|
G|------------------------------------------------------------|
D|-------2-4-4h5-4-2-4-2----------2-4~--2-4-4h5-4-2-4h5-5-4---|
A|-2-4-5--------------------2-4-5-----------------------------|
E|------------------------------------------------------------|

CHORUS:

e|------------------------------------------------------------|
B|------------------------------------------------------------|
G|------------------------------------------------------------|
D|---------------6-x-6-x-4-6---6-x-6-x-4-6--------------------|
A|------------------------------------------------------------|
E|-0/12/0-----------------------------------------------------|

e|------------------------------------------------------------|
B|------------------------------------------------------------|
G|------------------------------------------------------------|
D|------------------------------------------------------------|
A|-9x9x-9-7---9x9x-9-7----9-x-9-x-9-x-9-x-11-x-11-x-9-x-7-----|
E|------------------------------------------------------------|

e|------------------------------------------------------------|
B|------------------------------------------------------------|
G|------------------------------------------------------------|
D|---------------6-x-6-x-4-6---6-x-6-x-4-6--------------------|
A|------------------------------------------------------------|
E|------------------------------------------------------------|

e|------------------------------------------------------------|
B|------------------------------------------------------------|
G|------------------------------------------------------------|
D|------------------------------------------------------------|
A|-9x9x-9-7---9x9x-9-7----9-9-11---11-9-9-11---11-9-119~-----|
E|-------------------------------9-----------8----------------|



e|------------------------------------------------------------|
B|------------------------------------------------------------|
G|------------9-11-12-11-9-11-9-------------*OPTIONAL*--------|
D|---9-11-12--------------------------------------------------|
A|------------------------------------------------------------|
E|------------------------------------------------------------|

2ND VERSE:

e|------------------------------------------------------------|
B|------------------------------------------------------------|
G|------------------------------------------------------------|
D|------------------------2-4-4h5-4-2-4-2---------------------|
A|------------------2-4-5-------------------------------------|
E|------------------------------------------------------------|

e|------------------------------------------------------------|
B|------------------------------------------------------------|
G|------------------------------------------------------------|
D|-------2-4-4h5-4-2-4-2----------2-4-4h5-4-2-4-2-4-4h5---5/4-|
A|-2-4-5--------------------2-4-5-----------------------------|
E|------------------------------------------------------------|

CHORUS:

e|------------------------------------------------------------|
B|------------------------------------------------------------|
G|------------------------------------------------------------|
D|---------------6-x-6-x-4-6---6-x-6-x-4-6--------------------|
A|------------------------------------------------------------|
E|-0/12/0-----------------------------------------------------|

e|------------------------------------------------------------|
B|------------------------------------------------------------|
G|------------------------------------------------------------|
D|------------------------------------------------------------|
A|-9x9x-9-7---9x9x-9-7----9-x-9-x-9-x-9-x-11-x-11-x-9-x-7-----|
E|------------------------------------------------------------|

e|------------------------------------------------------------|
B|------------------------------------------------------------|
G|------------------------------------------------------------|
D|---------------6-x-6-x-4-6---6-x-6-x-4-6--------------------|
A|------------------------------------------------------------|
E|------------------------------------------------------------|

e|------------------------------------------------------------|
B|------------------------------------------------------------|
G|------------------------------------------------------------|
D|------------------------------------------------------------|
A|-9x9x-9-7---9x9x-9-7----9-9-11---11-9-9-11---11-9-119~-----|
E|-------------------------------9-----------8----------------|

BRIDGE + SOLO:

e|------------------------------------------------------------|
B|-5--5-5--5--4--4--4--4-------------------------------------|
G|-6--6-6--6--5--5--5--5-4--4--4-4--5----------------------|
D|-6--6--6--6--5--5--5--5--4--4--4--4--5----------------------|
A|------------------------------------------------------------|
E|---------------------------------------------6--8--9--------|

e|------------------------------------------------------------|
B|------------14------------13--------------------------------|
G|---------9------------19------------------------------------|
D|---9-11---------9-11-----------14/13------12/11--9----------|
A|-------------------------------------14---------------------|
E|------------------------------------------------------------|


e|------------------------------------------------------------|
B|------------------------------------------------------------|
G|------------9-11-12-11-9-11-9-------------*OPTIONAL*--------|
D|---9-11-12--------------------------------------------------| x2
A|------------------------------------------------------------|
E|------------------------------------------------------------|

CHORUS:

e|------------------------------------------------------------|
B|------------------------------------------------------------|
G|------------------------------------------------------------|
D|---------------6-x-6-x-4-6---6-x-6-x-4-6--------------------|
A|------------------------------------------------------------|
E|---12/0-----------------------------------------------------|

e|------------------------------------------------------------|
B|------------------------------------------------------------|
G|------------------------------------------------------------|
D|------------------------------------------------------------|
A|-9x9x-9-7---9x9x-9-7----9-x-9-x-9-x-9-x-11-x-11-x-9-x-7-----|
E|------------------------------------------------------------|

e|------------------------------------------------------------|
B|------------------------------------------------------------|
G|------------------------------------------------------------|
D|---------------6-x-6-x-4-6---6-x-6-x-4-6--------------------|
A|------------------------------------------------------------|
E|------------------------------------------------------------|

e|------------------------------------------------------------|
B|------------------------------------------------------------|
G|------------------------------------------------------------|
D|------------------------------------------------------------|
A|-9x9x-9-7---9x9x-9-7----9-9-11---11-9-9-11---11-9-119~-----|
E|-------------------------------9-----------8----------------|
 
                                                  *YOW*
e|----------------------------------------------------*slide--|
B|-----------------------------------------------------down*--|
G|-------------------------------------------------9-9/-------|
D|-------------------------------------------------9-9/-------|
A|--9h11-9-7--99h11-9---9h11-9-7-*let it ring*----7-7/-------|
E|------------------------------------------------------------|

/ slide
h  hammer on
x  mute string or lift the fingers from the strings just a little bit
~  let it ring
 
Video: http://www.youtube.com/watch?v=V2MsT9r2DnI
Better Sound: http://www.youtube.com/watch?v=i_5-TNIyU2E
Tap to rate this tab
# A B C D E F G H I J K L M N O P Q R S T U V W X Y Z