Song name
# A B C D E F G H I J K L M N O P Q R S T U V W X Y Z

Demi Lovato - Lightweight tab

Play this for verses and chorus:

e|---------------------------------------------------------------|
B|---------------------------------------------------------------|
G|------------------------8----8----8----8----10---10---10---10--|
A|----6---6----6----6----8----8----8----8----10---10---10---10---|
D|--6----6----6----6----6----6----6----6----8----8----8----8-----|
E|-4----4----4----4----------------------------------------------|

e|----------------------------|
B|----------------------------|
G|---------8----8----8----8---|
A|--------8----8----8----8----|
D|-------6----6----6----6-----|
E|----------------------------|



Bridge:
e|---------------------------------------------------------------|
B|---------------------------------------------------------------|
G|-----10---8----6----8------------------------10----8----6----8-|
A|----10---8----6----8----6----6----6----6----10----8----6----8--|
D|---8----6----4----6----6----6----6----6----8-----6----4----6---|
E|----------------------4----4----4----4-------------------------|

e|-----------------------------------------|
B|-----------------------------------------|
G|---6----6----6----6----8----8----8----8--|
A|--6----6----6----6----8----8----8----8---|
D|-4----4----4----4----6----6----6----6----|
E|-----------------------------------------|
Tap to rate this tab
# A B C D E F G H I J K L M N O P Q R S T U V W X Y Z