Song name
# A B C D E F G H I J K L M N O P Q R S T U V W X Y Z

Demi Lovato - So Far So Great tab

Hello! my name is jennifer and this is my first tab.

I learned this by ear and all the notes sound accurate!
Enjoy!
   Intro                                     after second time
e--------------------------|        e-----------------------------------|
B--------------------------|        B-----------------------------------|
G--------------------------|        G-----------------------------------|
D--------------------------| x2     D-----------------------------------|
A------1--2--4--5-4-5-4-2--|        A------1--2--4--2-4-5--2-4-5~~5--4~~|
E--2--4--------------------|        E--2--4-----------------------------|
 Off to the races, I'm going...       This is the big break and its......


Chorus

e---------------------------------------------------------------|
B---------------------------------------------------------------|
G---------------------------------------------------------------|
D---------------------------------------------------------------|
A--11-11-9-11--11-11-9-11--979797--979797--7-7-7-7--11-11--9-7--|
B---------------------------------------------------------------|
 so far so great get with it......            just the beginning..
e--------------------------------------------------------------------|
B--------------------------------------------------------------------|
G--------------------------------------------------------------------|
D--------------------------------------------------------------------|
A--11-11-9-11--11-11-9-11--979797--979797--9-11--11-9-11--11-9-11-9~~|
E-----------------------------------------------9--------8-----------|
so far so great believe it .........      i cant wait so far so great

Post Chorus

e-------------------------|
B------4--5--7--8-7-8-7-5-| 
G--4--6-------------------|
D-------------------------|
A-------------------------|
E-------------------------|
Ba da da da daa Da da da da daa

verse

e---------------------------|        e---------------------------------|
B---------------------------|        B---------------------------------|
G---------------------------|        G---------------------------------|
D---------------------------|x2      D---------------------------------|
A-------1--2--4--5-4-5-4-2--|        A------1--2--4--2-4-5-2-4-5~~-5-4~|
E--2--4---------------------|        E--2--4---------------------------|
Might need to wing it......            swing for the fences....yeah..       

Chorus

e---------------------------------------------------------------|
B---------------------------------------------------------------|
G---------------------------------------------------------------|
D---------------------------------------------------------------|
A--11-11-9-11--11-11-9-11--979797--979797--7-7-7-7--11-11--9-7--|
B---------------------------------------------------------------|
so far so great get with it......           just the beginning...
e--------------------------------------------------------------------|
B--------------------------------------------------------------------|
G--------------------------------------------------------------------|
D--------------------------------------------------------------------|
A--11-11-9-11--11-11-9-11--979797--979797--9-11--11-9-11--11-9-11-9~~|
E-----------------------------------------------9--------8-----------|
so far so great believe it .........      i cant wait so far so great

Bridge

e--------------------------------------------------|
B--------------------------------------------------|
G--6666--5555--4444--5555---6666--5555--4444--3~~--|
D--6666--5555--4444--5555---6666--5555--4444--3~~--|
A--4444--3333--2222--3333---4444--3333--2222--1~~--|
B--------------------------------------------------|
Everyone says dont get your hopes learn the ropes.....

e-------------------------|
B------4--5--7--8-7-8-7-5-| 
G--4--6-------------------|
D-------------------------|x2
A-------------------------|
E-------------------------|
Ba da da da daa Da da da da daa
It only gets better...yeah

Chorus

e---------------------------------------------------------------|
B---------------------------------------------------------------|
G---------------------------------------------------------------|
D---------------------------------------------------------------|
A--11-11-9-11--11-11-9-11--979797--979797--7-7-7-7--11-11--9-7--|
B---------------------------------------------------------------|
so far so great get with it......           just the beginning...

e--------------------------------------------------------------------|
B--------------------------------------------------------------------|
G--------------------------------------------------------------------|
D--------------------------------------------------------------------|
A--11-11-9-11--11-11-9-11--979797--979797--9-11--11-9-11--11-9-11-9~~|
E-----------------------------------------------9--------8-----------|
so far so great believe it .........      i cant wait so far so great

e-------------------|            e----------|
B-------------------|            B----------|
G-------------------|            G-----7----|
D-------------------|            D-----7----|
A--9-11---11-9~~~~--|            A-----5----|
B-------9-----------|            B----------|


THE END
Tap to rate this tab
 
# A B C D E F G H I J K L M N O P Q R S T U V W X Y Z