Song name
# A B C D E F G H I J K L M N O P Q R S T U V W X Y Z

Demi Lovato - Give Your Heart A Break tab

Demi Lovato - Give Your Heart a Break

Go to my video for full tabs @ http://www.youtube.com/user/anjelloguitar


|------------------------------------|
|-2-2-2-2----------------------------|
|-2-2-2-2--0-0-0-0--6-6-6-6--4-4-4-4-|
|-2-2-2-2--2-2-2-2--6-6-6-6--4-4-4-4-|
|----------2-2-2-2--4-4-4-4--2-2-2-2-|
|------------------------------------|

|---------------------------------------------------------------------|
|-2-2-2-2-2-2-2-2-----------------------------------------------------|
|-2-2-2-2-2-2-2-2--0-0-0-0-0-0-0-0--6-6-6-6-6-6-6-6--4-4-4-4-4-4-4-4--|
|-2-2-2-2-2-2-2-2--2-2-2-2-2-2-2-2--6-6-6-6-6-6-6-6--4-4-4-4-4-4-4-4--|
|------------------2-2-2-2-2-2-2-2--4-4-4-4-4-4-4-4--2-2-2-2-2-2-2-2--|
|---------------------------------------------------------------------|

Go to my video for full tabs @ http://www.youtube.com/user/anjelloguitar
Tap to rate this tab
# A B C D E F G H I J K L M N O P Q R S T U V W X Y Z