Song name
# A B C D E F G H I J K L M N O P Q R S T U V W X Y Z

Demi Lovato - Lightweight tab

-------------------------------------------------------------------------------
                             Lightweight- Demi Lovato
-------------------------------------------------------------------------------
Tabbed by: alanamarie1995
E-mail: alanamarie1995@gmail.com

I hope this isn't too hard to understand! If you have any questions let me know :) enjoy!

Tuning: Standard Capo 1
(Play from high e to G)
Intro & Verses

e|---3---------3-----------3------------3----------------------------------|
B|---3---------3-----------3------------3----------------------------------|
G|---0---------0-----------0------------0----------------------------------|
D|-------------------------------------------------------------------------|
A|-------------------------------------------------------------------------|
E|-------------------------------------------------------------------------|

(Shaped like a D chord)
e|---2---------2-----------2-----------------------------------------------|
B|---3---------3-----------3-----------------------------------------------|
G|---2---------2-----------2-----------------------------------------------|
D|-------------------------------------------------------------------------|
A|-------------------------------------------------------------------------|
E|-------------------------------------------------------------------------|

e|---0---------0-----------0------------------------------------------------|
B|---0---------0-----------0------------------------------------------------|
G|---0---------0-----------0------------------------------------------------|
D|--------------------------------------------------------------------------|
A|--------------------------------------------------------------------------|
E|--------------------------------------------------------------------------|

(Shaped like a D chord)
e|---2---------2-----------2-----------------------------------------------|
B|---3---------3-----------3-----------------------------------------------|
G|---2---------2-----------2-----------------------------------------------|
D|-------------------------------------------------------------------------|
A|-------------------------------------------------------------------------|
E|-------------------------------------------------------------------------|

Chorus: Strum each chord once and pick like verse and intro above
           G                              D
I'm a lightweight better be careful what you say
                           Em
With every word I'm blown away
                        D
You're in control of my heart

           G                           D
I'm a lightweight easy to fall easy to break
                           Em
With every move my whole world shakes
                       D
Keep me from falling apart

Verse 2 like above

Chorus:same

Bridge: (Strum)
                      Em
Keep me from falling down
                  G
Drowned in your love
      Em             G
It's almost all too much
Em          G
Handle with care
Em             D
Say you'll be there

Chorus: Strum
          G                              D
I'm a lightweight better be careful what you say
                           Em
With every word I'm blown away
                        D
You're in control of my heart

           G                           D
I'm a lightweight easy to fall easy to break
                           Em
With every move my whole world shakes
                       D
Keep me from falling apart
                      G
Keep me from falling apart
                      Em
Keep me from falling apart

Oh ohhh
         G
Falling apart
Tap to rate this tab
# A B C D E F G H I J K L M N O P Q R S T U V W X Y Z