Song name
# A B C D E F G H I J K L M N O P Q R S T U V W X Y Z

Demi Lovato - Really Dont Care tab

-------------------------------------------------------------------------------
                             REALLY DON'T CARE - Demi Lovato (ft. Cher Lloyd)
-------------------------------------------------------------------------------
Tabbed by: Lauren Marquez
E-mail: lauren.marquez4@gmail.com

Tuning: Standard


INTRO
e|---7-7--12-12-10----7-7--12-12-10---|
B|---x-x--x--x--x-----x-x--x--x--x----|
G|---x-x--x--x--x-----x-x--x--x--x----|
D|---5-5--10-10-10----5-5--10-10-10---|
A|------------------------------------|
E|------------------------------------|

VERSE
   "You wanna play you wanna stay you wanna have it all
    You started messing with my head until I hit a wall"
e|---7-7--12-12-10---7-7--12-12-10---7-7--12-12-10---7-7--12-12-10---|
B|---x-x--x--x--x----x-x--x--x--x----x-x--x--x--x----x-x--x--x--x----|
G|---x-x--x--x--x----x-x--x--x--x----x-x--x--x--x----x-x--x--x--x----|
D|---5-5--10-10-10---5-5--10-10-10---5-5--10-10-10---5-5--10-10-10---|
A|-------------------------------------------------------------------|
E|-------------------------------------------------------------------|

    "Maybe I shoulda known, maybe I shoulda known
     That you would walk, you would walk, out the door, hey"
e|--------------------------------------------------------------|
B|---8-8--8-8--7----8-8--8-8--7----5-5--5-5--3----5-5--5-5--3---|
G|---x-x--x-x--x----x-x--x-x--x----x-x--x-x--x----x-x--x-x--x---|
D|---x-x--x-x--x----x-x--x-x--x----x-x--x-x--x----x-x--x-x--x---|
A|---7-7--7-7--5----7-7--7-7--5----3-3--3-3--2----3-3--3-3--2---|
E|--------------------------------------------------------------|

    "Said we were done and met someone and rubbed it in my face
     Cut to the punch she broke your heart and then she ran away"
e|---7-7--12-12-10---7-7--12-12-10---7-7--12-12-10---7-7--12-12-10---|
B|---x-x--x--x--x----x-x--x--x--x----x-x--x--x--x----x-x--x--x--x----|
G|---x-x--x--x--x----x-x--x--x--x----x-x--x--x--x----x-x--x--x--x----|
D|---5-5--10-10-10---5-5--10-10-10---5-5--10-10-10---5-5--10-10-10---|
A|-------------------------------------------------------------------|
E|-------------------------------------------------------------------|
  
    "I guess you shoulda known, I guess you shoulda known
     That I would talk, I would talk"  
e|--------------------------------------------------------------|
B|---8-8--8-8--7----8-8--8-8--7----5-5--5-5--3----5-5--5-5--3---|
G|---x-x--x-x--x----x-x--x-x--x----x-x--x-x--x----x-x--x-x--x---|
D|---x-x--x-x--x----x-x--x-x--x----x-x--x-x--x----x-x--x-x--x---|
A|---7-7--7-7--5----7-7--7-7--5----3-3--3-3--2----3-3--3-3--2---|
E|--------------------------------------------------------------|

CHORUS
     "But even if the stars and moon collide
      I never want you back into my life"
e|-----------------------------------------------------|
B|---0000---3333---33333333---0000---3333---33333333---|
G|---0000---2222---00000000---0000---2222---00000000---|
D|---2222---0000---00000000---2222---0000---00000000---|
A|---2222---0000---22222222---2222---0000---22222222---|
E|---0000---2222---33333333---0000---2222---33333333---|

     "You can take your words and all your lies
      Oh oh oh, I really don't care"
e|---------------------------------22---33---|
B|---0000---3333---33333333---00---33---33---|
G|---0000---2222---00000000---00---22---00---|
D|---2222---0000---00000000---22---00---00---|
A|---2222---0000---22222222---22--------22---|
E|---0000---2222---33333333---00--------33---|

(Repeat)

All the other verses/choruses follow the same pattern, including Cher's verse.

************************************

| /   slide up
| \   slide down
| h   hammer-on
| p   pull-off
| ~   vibrato
| +   harmonic
| x   Mute note
| b   Bend
| pb  Pre-bend
| br  Bend release
| pbr Pre-bend release
| brb Bend release bend

************************************
Tap to rate this tab
 
# A B C D E F G H I J K L M N O P Q R S T U V W X Y Z