Song name
# A B C D E F G H I J K L M N O P Q R S T U V W X Y Z

Demir Demirkan - Ruzgar tab

Help us improve GuitareTab! Take a short survey!
http://www.demirdemirkan.net/
                     DEMİR DEMİRKAN-Rzgar
3:12
E ---------------------------------------------------------------------|
B ----13-12p10----8h10--12b-12-10--------------------------------------|
G -------------10-----------------10-9-7-9-----------------------------|
D -10--------------------------------------7-7--7h9s5-5-------7--------|
A ---------------------------------------------------------/7----------|
E ---------------------------------------------------------------------|

E --------------------------------I-15-17-18-17-15-17------------------|
B --------------9-10-12b-12-10-12-I-------------------18-17-15-17------|
G ---------9-10-------------------I------------------------------------|
D -----7-8------------------------I------------------------------------|
A -7-8----------------------------I------------------------------------|
E --------------------------------I------------------------------------|
                                               3x
E ---------------------------------------I-------------I---------------|
B ---------------------------------------I-------------I---------------|
G -18-17-15-17---------------------------I----------15-I-9v-8-9--------|
D -------------18-17-15-17----------15---I-15-17-18----I---------------|
A -------------------------15-17-18------I-------------I---------------|
E ---------------------------------------I-------------I---------------|

E ---------------------|
B ---------------------|
G -9-13-11-10-9-7------|
D ----------------9-7--|
A ---------------------|
E ---------------------|
Related for Ruzgar tab