Song name
# A B C D E F G H I J K L M N O P Q R S T U V W X Y Z

Demiricous - Never Enough Road tab

Band: DEMIRICOUS
Album: Two (Poverty)
Song: Never Enough Road (Track #1)

Tune down 1 step

Verse
D|-------------------------------------------------------------------|
A|-------------------------------------------------------------------|
F|-------------------------------------------------------------------|
C|------------------------------------------5-2-5-8-7-5--5-2-5-8-8-8-|
G|2-2-2-2-2-2-2-2-2-2-2-2-2-2-2-2-2-2-2-2-2-5-2-5-8-7-5--5-2-5-8-8-8-|
D|0-0-0-0-0-0-0-0-0-0-0-0-0-0-0-0-0-0-0-0-0-3-0-3-6-5-3--3-0-3-6-6-6-| X4

Chorus
D|------------------------------------------------------------------------|
A|------------------------------------------------------------------------|
F|------------------------------------------------------------------------|
C|------------------------------------------------------------------------|
G|2-2-2-2-2---2-2-2-2-2-2-2-2-2-2---2-2-2-2-2-2-2-2-2-2---2-2-2-2-2-2-2-2-|
D|0-0-0-0-0---0-0-0-0-0-0-0-0-0-0---0-0-0-0-0-0-0-0-0-0---0-0-0-0-0-0-0-0-|


D|----------------|
A|----------------|
F|----------------|
C|----------------|
G|2-3-3/5-5/6-6\3-|
D|0-1-1/3-3/4-4\1-| X4

Bridge
D|-----------------------------------------|
A|-----------------------------------------|
F|-----------------------------------------|
C|8---7---5---4---2lr----2-----2-3-6-5---5-|
G|8---7---5---4---2lr----2-----2-3-6-5---5-|
D|6-0-5-0-3-0-2-0-0lr----0-----0-1-4-3-0-3-|


Verse
D|-------------------------------------------------------------------|
A|-------------------------------------------------------------------|
F|-------------------------------------------------------------------|
C|------------------------------------------5-2-5-8-7-5--5-2-5-8-8-8-|
G|2-2-2-2-2-2-2-2-2-2-2-2-2-2-2-2-2-2-2-2-2-5-2-5-8-7-5--5-2-5-8-8-8-|
D|0-0-0-0-0-0-0-0-0-0-0-0-0-0-0-0-0-0-0-0-0-3-0-3-6-5-3--3-0-3-6-6-6-| X4


Chorus
D|------------------------------------------------------------------------|
A|------------------------------------------------------------------------|
F|------------------------------------------------------------------------|
C|------------------------------------------------------------------------|
G|2-2-2-2-2---2-2-2-2-2-2-2-2-2-2---2-2-2-2-2-2-2-2-2-2---2-2-2-2-2-2-2-2-|
D|0-0-0-0-0---0-0-0-0-0-0-0-0-0-0---0-0-0-0-0-0-0-0-0-0---0-0-0-0-0-0-0-0-|


D|----------------|
A|----------------|
F|----------------|
C|----------------|
G|2-3-3/5-5/6-6\3-|
D|0-1-1/3-3/4-4\1-| X4

Bridge
D|-----------------------------------------|
A|-----------------------------------------|
F|-----------------------------------------|
C|8---7---5---4---2lr----2-----2-3-6-5---5-|
G|8---7---5---4---2lr----2-----2-3-6-5---5-|
D|6-0-5-0-3-0-2-0-0lr----0-----0-1-4-3-0-3-|


I haven't figured out the last part of the song yet but I'm working on it.
And just for the record, Demiricous is my favorite band, and it was pissing me off so 
only seeing one tab on here by them for so long. So I got off my lazy ass and learned most 
this song by ear.

lr = let ring
b = bend
p = pull off
x = mute
Tap to rate this tab
# A B C D E F G H I J K L M N O P Q R S T U V W X Y Z