Demo Mode - Tra Fascino E Rabbia chords

Highlighted       Show chord diagrams
Questa Canzone E' Stupenda... La Troverete Solo Su Facebook O Su iTunes O
Acquistando Il Cd "Niente Come Niente" Della Band "DeMo MoDe"

Str.
       E*                  C#m
e------------------|--------4-------------|
B------------------|--------5-------------|
G------8-----------|--------6-------------|
D------9-----------|--------6-------------| (x6 volte)
A------7-----------|--------4-------------|
E------------------|----------------------|

Rit.
      (1)                  (2)           (3)               (4)
e------x-----------|--------x-------|-----x---------|-------x------|
B------x-----------|--------x-------|-----x---------|-------x------|
G------x-----------|--------x-------|-----x---------|-------x------|
D------x-----------|--------x-------|-----9---------|-------6------| (x5 volte)
A------6-----------|--------7-------|-----7---------|-------4------|
E------4-----------|--------5-------|-----x---------|-------x------|

Tra Fascino E Rabbia - DeMo MoDe

Str.1
E*                  C#m
Seduto sulla nuvola, dei miei pensieri
E*                      C#m
Avvolto da una romantica, nostalgia
E*                        C#m              E*
In conflitto con il cuore, vorrei mandarti via
E*           C#m        E*                     C#m
Ma resto incapace, dall'armonia dei tuoi gesti
   E*       C#m
Perdendomi, Tra il Fascino e la Rabbia.

Rit.
(1)    (2)        (3)    (4)               (1)
E da domani gia' saro', lontano kilometri da te
(1)   (2)         (3)         (4)          (1)
E lo faro' per rifugiarmi, dal Fascino e la Rabbia
(1)   (2)       (3)       (4)   (1) (2)
E per perdermi, dentro un'altra che
(2)     (3)
Non sia te.

Str.2
Nel rumore del mondo, riesco a distinguere
La tua voce, tra migliaia
E tra milioni di vite sei l'unica ad avere quel che vivrei
Perche' so che l'unica alla quale mi adatterei
Ma tu ti muovi come se, le forze della gravita'
Non ti dessero confini, lasciandomi
Tra il Fascino e la Rabbia.

Rit.
E da domani gia' saro', lontano kilometri da te
E lo faro' per rifugiarmi, dal Fascino e la Rabbia
E per perdermi, dentro un'altra che
Non sia te.

E da domani gia' saro', lontano kilometri da te
E lo faro' per rifugiarmi, dal Fascino e la Rabbia
E per perdermi, dentro un'altra che
Non sia te.

Tank to:
(Elaborato da "Shur'" - Antony Barbera)
(Testo di "Santa" - Davide Santapaola)
(Musica di "DeMo MoDe")
Tap to rate this tab
 
# A B C D E F G H I J K L M N O P Q R S T U V W X Y Z